Guitar Tabs, Chords and Lyrics


Step To Cky   Cky



main riff
-|-------------------------------------------------|
-|-------------------------------------------------|
-|-------------------------------------------------|
-|----------2---1----------------------------------|
-|-1--4--1----1----4--1-0---------0-1-3-4----------|
-|--------------------------1-2-1------------------|
                                                                

variation of main riff
-|---------------------------------------------|
-|---------------------------------------------|
-|---------------------------------------------|
-|--------2---1--------------------------------|
-|1--4--1---1----4--1---0---------0------------|
-|---------------------------1--------1--------|
        
                                                          
bridge
-|------------------------------------------|
-|------------------------------------------|
-|------------------------------------------|
-|------------------------------------------|
-|------------------------------------------|


Important: The song above is NOT stored on the Chordie server. The original song is hosted at www.guitaretab.com. Chordie works as a search engine and provides on-the-fly formatting. Chordie does not index songs against artists'/composers' will. To remove this song please click here.

This song is displayed as text-only. Transposing and tuning is only available for chordpro-songs.

Login - add to songbook

Rating click stars to rate

Layout
Accuracy

SHARE PAGE  




You need to log in to post comments