eToCache5 = ""; ?> Anyday by Eric Clapton - guitar chords, guitar tabs and lyrics - chordie

Anyday

Eric Clapton

------------------------------|

-----------2---2-2----/14-----|
-----------2---2-2----/14-----|
--0-2-4-0--2—--2-2----/14-----|
-----------0---0-0------------|
------------------------------|
-----------------------------|
-----------------------------|
-----14---14---14------------|
--/14--/14--/14—-------------|
-----------------------------|
-----------------------------|

 AA/GD(/F#FGF
Heard you talking and I thought I heard you say        
 AA/GDFGF
Yeah, "Please leave me alone       
 AA/GD(/F#FGF
 Nothing in this world can make me stay           
A A/G D/F# F G F (chorus lick)
I'd rather go back, I'd rather go back home"

CHORUS:
D C A A(XII)
-----------------------------------------------17—-17----|
---/15-13/14-------------------/15-13/14----/17--17------|
------------14------14-—14--------------14---------------|
-----------------/14--14—--------------------------------|
---------------------------------------------------------|
---------------------------------------------------------|

But if you believe in me
Like I believe in you
We could have a love so true
We would go on endlessly

 DGDGDGDG
(And I) know anyday, anyday, I will see you smile              
 DGDGDGDG
 Any way, any way, (if) only for a little while           

INTRO RIFF

Well someday baby, I know you're gonna need me
When this whole world has got you down
I'll be right here, so woman call me
And I'll never ever let you down ...CHORUS

Break the glass and twist the knife into yourself
You've got to be a fool to understand
To bring your woman back home
After she's left you for another
You've got to be a, you've got to be a man ...CHORUS


A A/G D F G
variations - click chord images
Transpose chords:
Tuning:
Cool service:
View: Size:
A  A  A
Rating:
Layout:
  • Currently 2.8/5 Stars.
  • 1
  • 2
  • 3
  • 4
  • 5
 
Accuracy:
  • Currently 2.4/5 Stars.
  • 1
  • 2
  • 3
  • 4
  • 5
 
click stars to rate
Chordie recommends:
Learn to play songs at Jamplay.com with video guitar lessons
Songbook:
Login to add this song to your songbook
Support the artist
Preview/buy this song
MSN Music
Why this non-profit ad?

 
login to add comments/video/corrections