Bell Bottom Blues

Eric Clapton

 N.C.
               C            E/B           Am            C/G
v v v v v v v v v v v v v v v v v v
	-----------|-------------|-------------|-------------|-------------
	-----------|----1--------|-------------|-------------|-------------
	-----------|-------0-----|-------1-----|-------2-----|-------------
	-------0---|h2--------2--|----2-----2--|----2-----2--|-------2-----
	-2--h3-----|-------------|-2-----------|-0-----------|----3-----3--
	-----------|-------------|-------------|-------------|-3-----------


 Riff 1:
 FGFCG
         v  v  v  v    v  v  v   v    v     v     v     v       v v v v
	-------------|--------------|-13----------------10----|---------
	-------------|--------------|---1311---------------12-|---------
	-------------|---------4----|---------10b12-----------|---------
	-------3-----|-------5---5\-|-------------------------|---------
	----3-----3--|s5--5---------|-------------------------|---------
	-1-----------|--------------|-------------------------|---------

 --3--
Verse 1:
 CE/BAmC/G
        Bell Bottom Blues, you made me cry 
 Riff 1
                       F                G     F C G  
I don't wanna lose this feeling
 CE/BAmC/G
        If I could choose a place to die 
 FG
        It would be in your arms 
Chorus:
 AE/G#F#mDE
        Do you wanna see me crawl across the floor to you  
 AE/G#F#m
        Do you wanna hear me beg you to take me back
 DE
        I'd gladly do it, because
 AAmaj7/C#A7DE
        (I don't want to fade  away) Give me one more day, please
 AAmaj7/C#A7DE
        (I don't want to fade  away) In your heart I wanna stay
 Riff 1
        F C G   
Verse 2:
It's all wrong, but it's all right
The way that you treat me, baby ...mmmm
Once I was strong, but I lost the fight
You won't find a better loser
 repeat cborus
 guitar solo over verse cbords
 repeat cborus
Verse 3:
Bell Bottom Blues, don't say goodbye
We're surely gonna meet again
And if we do, dontcha be surprised
If you find me with another lover ...oh!
[repeat chorus, repeating last two lines two extra times; end cold
on G of Riff 1]
-- another ace 70's tab from Andrew Rogers


A A7 Am Amaj7/C# C C/G D E E/B E/G# F F#m G
variations - click chord images
Transpose chords:
Tuning:
Cool service:
View: Size:
A  A  A
Rating:
Layout:
  • Currently 3.2/5 Stars.
  • 1
  • 2
  • 3
  • 4
  • 5
 
Accuracy:
  • Currently 3.2/5 Stars.
  • 1
  • 2
  • 3
  • 4
  • 5
 
click stars to rate
Chordie recommends:
Get acoustic guitar lessons and electric guitar lessons at JamPlay.com
Songbook:
Login to add this song to your songbook
Support the artist
Preview/buy this song
MSN Music
Why this non-profit ad?

 
login to add comments/video/corrections