eToCache5 = ""; ?> Old Love by Eric Clapton - guitar chords, guitar tabs and lyrics - chordie

Old Love

Eric Clapton

----------------------------------------------------------------------

 //////////////////////////////////////////////////////////////////////
----------------------------------------------------------------------

Tabbed by: JFAREWELL

Song by: Eric Clapton

Album: Unplugged - 1992

Song: Old Love
----------------------------------------------------------------------

 //////////////////////////////////////////////////////////////////////
----------------------------------------------------------------------


Chords
------

E A D G B e
          ----------------

C* x x 5 5 5 0

F* x x 0 5 6 5
 G7sus4353533
G* 3 5 5 4 3 3

 F133211
E7 0 2 2 1 3 0

E7* 0 7 6 7 x x

Am* 5 7 7 5 5 5

Cb5 x x 4 5 5 0 (C flat 5th)

Intro

e|------------------------5--5---5--5--0---3--3--3--3---|  x4
B|------------------------5--6---6--6--0---3--3--3--3---|
G|------------------------5--5---5--5--0---5--5--5--4---|
D|-----------------------------------------3--3--3--5---|
A|---------0-3-0-----0---------------------5--5--5--5---|
E|----0-3---------3------------------------3--3--3--3---|


Am* F* G7sus4 G*
I can feel your body

Am* F* G7sus4 G*
When I`m lying in bed
Am* F* G7sus4 G*
Theres too much confusion
Am* F* G7sus4 G*
Going around through my head

 FE7
        And its making me so angry

E7 C* Cb5th
To know that the flame still burns

 FE7
        Lord Why can't I get over?

F F E7* E7* E7* E7* E7*
And When will I ever learn


C* F* G7sus4 G* C* F* G7sus4 G*

Old love leave me alone

C* F* G7sus4 G* C* F* G7sus4 G*
Old love just go on home

Am* F* G7sus4 G*
I can see your face......yesss

Am* F* G7sus4 G*
But I know it aint real

Am* F* G7sus4 G*
just an illusion

Am* F* G7sus4 G*
Caused by how I used to be


 FE7
        And its making me so angry

E7 C* Cb5th
I know now that the flame will always burn......flame will always burn

 FE7
        I aint never gonna get over

F F E7*
know now that I'll never learn


C* F* G7sus4 G* C* F* G7sus4 G*
Old love, old love leave me alone

C* F* G7sus4 G* C* F* G7sus4 G*
Old love, old love just go on home, go on home

Solo

Comes back in after solo
e|------------------------5--5---5--5--0---3--3--3--3---|    x2
B|------------------------5--6---6--6--0---3--3--3--3---|
G|------------------------5--5---5--5--0---5--5--5--4---|
D|-----------------------------------------3--3--3--5---|
A|---------0-3-0-----0---------------------5--5--5--5---|
E|----0-3---------3------------------------3--3--3--3---|


C* F* G7sus4 G* C* F* G7sus4 G*
Old love, old love just go on home, go on home

Piano Solo

e|------------------------5--5---5--5--0---3--3--3--3---|  happens in the background throught
B|------------------------5--6---6--6--0---3--3--3--3---|  the rest of the song
G|------------------------5--5---5--5--0---5--5--5--4---|
D|-----------------------------------------3--3--3--5---|
A|---------0-3-0-----0---------------------5--5--5--5---|
E|----0-3---------3------------------------3--3--3--3---|      


Back to guitar
C* F* G7sus4 G*
Old Love
C* F* G7sus4 G*
Old Love
C* F* G7sus4 G*
Old Love

C* F* G7sus4 G*
Old Love

C* F* G7sus4 G*
Old Love

C* F* G7sus4 G*
Old Love

C* F* G7sus4 G*
Old Love

 End

E7 F G7sus4
variations - click chord images
Transpose chords:
Tuning:
Cool service:
View: Size:
A  A  A
Rating:
Layout:
  • Currently 2.5/5 Stars.
  • 1
  • 2
  • 3
  • 4
  • 5
 
Accuracy:
  • Currently 3.1/5 Stars.
  • 1
  • 2
  • 3
  • 4
  • 5
 
click stars to rate
Chordie recommends:
Learn to play songs at Jamplay.com with video guitar lessons
Songbook:
Login to add this song to your songbook
Support the artist
Preview/buy this song
MSN Music
Why this non-profit ad?

 
login to add comments/video/corrections