Chordie logo


Eat The Hands That Feeds Me   Clawfinger








Clawfinger - Eat The Hands That Feeds Me
Submitted By: guitarfreak
EMail: heinz-werner.hild@t-online.de
Album: B-Site of the "Nothing going on"-Single
Guitarists: Bard Torstensen, Erlend Ottem

Tuning: D A D G B E

\= slide
x= ghost note

Main Riff
                    7x                           1x
E---------------------|----------------------------|
B---------------------|----------------------------|
G-3\2--2----2-3-----3-|-3\2--2---------------------|
D-3\2--2----2-3-----3-|-3\2--2---------------------|
A-1\0--0----0-1---x-1-|-1\0--0-----5-5---3-3---2-2-|
D---------------------|------------5-5---3-3---2-2-|


Verse

                   7x                           1x
E---------------------|----------------------------|
B---------------------|----------------------------|
G---------------------|----------------------------|
D---------------------|----------------------------|
A-8\7--7----7-8-----8-|-8\7--7---------------------|
D-8\7--7----7-8---x-8-|-8\7--7-----5-5---3-3---2-2-|



Important: The song above is NOT stored on the Chordie server. The original song is hosted at www.guitaretab.com. Chordie works as a search engine and provides on-the-fly formatting. Chordie does not index songs against artists/composers will. To remove this song please click here.

This song is displayed as text-only. Transposing and tuning is only available for chordpro-songs.

Login - add to songbook

Rating click stars to rate

Layout
Accuracy

SHARE PAGE  




You need to log in to post comments