Guitar Tabs, Chords and Lyrics


Gaye  Clifford T Ward

E -----(0h3)----/----7---\-----5---\----7---------|


B ---1------1---/------8-\---------\------8-------|


G -0----------0-/--7-----\---5---5-\--7-----------|

D ------------------------------------------------| X2
A ------------------------------------------------|
E ------------------------------------------------|
E -----(0h3)----/----7---\-----5---\----7---------|
B ---1------1---/------8-\---------\------8-------|
G -0----------0-/--7-----\---5---5-\--7-----------|
D ------------------------------------------------| X5
A ------------------------------------------------|
E ------------------------------------------------|
[C]GAYE,     WON'T [G]YOU LET ME HAVE A SAY                           [Am7]
[F]IN THE WAY YOU'LL BEHAVE                   [C]        [G]
[F]I WON'T LAST ANOTHER DAY  [C]
[G]IF YOU DECID[Dm]E TO GO AWAY               [C]
[G]YOU'RE THE TR[C]AY OF NICE THINGS, THAT I'VE SET YESTERDAY
[Fm]THAT DISPLAY OF BRIGHT BRINGS, I L[Dm]ET SLIP AWA[C]Y               [F]                  [C]
[G]OH GAYE, YOU WILL [Am]LAY MY EVERY FEAR                [C]
[F]IN THE MOST E[Am]XTRORDINARY WAY              [C]
[F]IF I THOUGHT THAT I COULD FIND MY WAY W[C]ITHOUT YOU             [G]              [F]
WOULD NOT ASK YO[G]U TO STAY                       [C]
YOU'RE THE T[C]RAY OF NICE THINGS, THAT I'VE SET YESTERDAY
[Dm]YOU HAD STAY IN MY DREAMS THAT I LET SLIP[C] AWAY          [F]           [G]                 [C]
[C]GAYE, WON'T YOU LET ME HAVE A SAY                [G]            [C]
[F]IN THE WAY YOU'LL BEHAVE                    [C]
[F]I WON'T LAST ANOTHER DAY                    [C]
[C]IF YOU DECIDE[F] TO GO AWAY                  [C]
[Am]DON'T GO AWAY    [C]
[Am]OH PLEASE STAY   [C]
[Am]DON'T GO AWAY     [C]
( , ) - Play fast
\ - slide down
/ -slide up By Matthew Price my first tab I donÂ’t think it is bad

Important: The song above is NOT stored on the Chordie server. The original song is hosted at www.guitaretab.com. Chordie works as a search engine and provides on-the-fly formatting. Chordie does not index songs against artists'/composers' will. To remove this song please click here.

Text color:
Chord color:
Chord grids: 
Font size:    
Page size: 

Am Am7 C Dm F Fm G
variations - click chord images

Login - add to songbook

Transpose chords

Tuning

Rating click stars to rate

Layout
Accuracy

SHARE PAGE  




You need to log in to post comments