Guitar Tabs, Chords and Lyrics


Big News 1   Clutch












Big News 1      by Clutch
                from the album "Clutch"
                words and music by Tim Sult, Dan Maines,
                        Neil Fallon and Jean-Paul Gaster
                corrected tab by Tom Mallon

main verse (first part)
e-|----------------------------------------|
B-|----------------------------------------|
G-|----------------------------------------|
D-|------------6--------6-------6h8p6------|
A-|----6h8-8-8------8---------8------------|
E-|----------------------------------------|

main verse (second part)
e-|----------------------------------------|
B-|----------------------------------------|
G-|----------------------------------------|
D-|------------6--------6------------------|
A-|----6h8-8-8------8----------------------|
E-|---------------------------7---8---9----|

At "Ahead one third..."
e-|----------------|--------------------------------|
B-|----------------|--------------------------------|
G-|--8/10101010\---|--8/10101010---8/10----13--12---|
D-|--8/10101010\---|--8/10101010---8/10----13--12---|
A-|--6/8-8-8-8-\---|--6/8-8-8-8----6/8-----11--10---|
E-|----------------|--------------------------------|
     3 times        and then this once


Bridge
e-|-------------------------------|---------|
B-|----------~-----------~--------|---------|
G-|.---------8-----------8-------.|---------|
D-|.-----6-8---------6-8---------.|---------|
A-|--8-6---------8-6---------6-8--|---------|
E-|-------------------------------|---------|
--
 | Fidonet:  Burning Inside 1:273/929
 | Internet: Burning.Inside@f929.n273.z1.fidonet.org
 |  Standard disclaimer: The views of this user are strictly his own.


Important: The song above is NOT stored on the Chordie server. The original song is hosted at www.guitaretab.com. Chordie works as a search engine and provides on-the-fly formatting. Chordie does not index songs against artists/composers will. To remove this song please click here.

This song is displayed as text-only. Transposing and tuning is only available for chordpro-songs.

Login - add to songbook

Rating click stars to rate

Layout
Accuracy

SHARE PAGE  




You need to log in to post comments