Guitar Tabs, Chords and Lyrics


Maailmoiden Valissa   Cmx



CMX - Maailmoiden Välissä
Raivo EP 1989
A.W. Yrjänä

Alussa A:ta

Perus:

E |---------------------------------|
B |---------------------------------|
G |---------------------------------|
D |---------------------------------|
A |---4-5-4---4-5-4---4-5-4---4-5-4-|
E |-5-------5-------5-------5-------|

Pre-chorus:

E |---------------------------------|---------------------------------|
B |---------------------------------|---------------------------------|
G |---------------------------------|---------------------------------|
D |-----------------9-9-9-9-7-7-7-7-|-----------------9-9-9-9-7-7-7-7-|
A |-5-5-5-5-5-5-5-5-7-7-7-7-5-5-5-5-|-5-5-5-5-5-5-5-5-7-7-7-7-9-9-9-9-|
E |-3-3-3-3-3-3-3-3-----------------|-3-3-3-3-3-3-3-3-----------------|

Kertsi:

E |---------------------------|
B |---------------------------|
G |---------------9-------5---|
D |----10--7----9---9---5---5-|
A |-7---9--5--7-------3-------|
E |-5-------------------------|



Important: The song above is NOT stored on the Chordie server. The original song is hosted at www.guitaretab.com. Chordie works as a search engine and provides on-the-fly formatting. Chordie does not index songs against artists'/composers' will. To remove this song please click here.

This song is displayed as text-only. Transposing and tuning is only available for chordpro-songs.

Login - add to songbook

Rating click stars to rate

Layout
Accuracy

SHARE PAGE  




You need to log in to post comments