Guitar Tabs, Chords and Lyrics


Argy Bargy   Cock Sparrer



--------------------------- Guitar tab -------------------------------------

Cock Sparrer : Argy Bargy



Intro
e|----------------------------------------------------|
B|----------------------------------------------------|
G|--------------------66------------------------------|
D|-----------66-------44----77-----------99-----------| 
A|---77------44-------------55------99---77----7------|
E|---55-----------------------------77---------5------|

Verses 
e|-----------------------------------------------------------------|
B|-----------------------------------------------------------------|
G|-----------------7-7-7-7-7-7-7-7-9-9-9-9-9-9-9-9-----------------|
D|-7-7-7-7-7-7-7-7-7-7-7-7-7-7-7-7-9-9-9-9-9-9-9-9-7-7-7-7-7-7-7-7-| 
A|-7-7-7-7-7-7-7-7-5-5-5-5-5-5-5-5-7-7-7-7-7-7-7-7-7-7-7-7-7-7-7-7-|
E|-5-5-5-5-5-5-5-5---------------------------------5-5-5-5-5-5-5-5-|

chorus
e|----------------------------------------------------|
B|----------------------------------------------------|
G|--------------------66------------------------------|
D|-----------66-------44----77-----------99-----------| 
A|---77------44-------------55------99---77----7------|
E|---55-----------------------------77---------5------|

Solo
              3x                         1x
e|---8--6-5-------------------|---------------------------|
B|----------8---5-------------|-------------------8-7-----|
G|-----------------7-5---5~~--|----7--10~~-7---5~~----5~--|
D|---------------------7------|---------------------------|
A|----------------------------|---------------------------|
E|----------------------------|---------------------------|
                       Solo Reapeat 2x  

intro 2x
verse 2x
chorus 2x
verse 2x
chorus 2x
solo
verse 2x
chorus 4x
..........................Tabbed by Yan    

Cock Sparrer Argy Bargy lyrics

It started off like any other show
Sunday nights on the radio
Terry played the songs we wanted to hear
And Terry said things no one else would dare
He gave it all that he had to give
They said it was his only reason to live
But we just listened to the rock n roll
Terry the DJ's radio show

[Chorus]
He give it some of that Argy Bargy
Giving it all the chat
He give it some Argy Bargy
Now what do you think of that

Then came the evening of the Mile End row
The Ol' Bill found out I don't know how
We know they tried to lock us up that night
We were ready for a fight
Terry came onto the air at ten
He said the filth were waiting for us then
Down at the Black Boy they were there in force
And he was right of course

[Chorus]

They told him that he'd better change the song
They said to tell us that the kids were wrong
They gave him one more Sunday night, to get it right
That was the night when the girls all cried
That was the night that he said goodbye
'Cos no matter who paid him, 
Terry never told us a lie

[Chorus x2]


Important: The song above is NOT stored on the Chordie server. The original song is hosted at www.guitaretab.com. Chordie works as a search engine and provides on-the-fly formatting. Chordie does not index songs against artists'/composers' will. To remove this song please click here.

This song is displayed as text-only. Transposing and tuning is only available for chordpro-songs.

Login - add to songbook

Rating click stars to rate

Layout
Accuracy

SHARE PAGE  




You need to log in to post comments