Guitar Tabs, Chords and Lyrics


Finger Lickin Pud   Unknown













>
>
>                            Transcribed by,
>                                    Brian Ebbitt

Intro, Verse:
e---------------------------------|
b--------2--0--2------------------|
g----2----------------------------|
d------0--------------------------|
a-----------------4-s-7-s-9-------|
E---------------------------------|
It's so juicy

and smells like fish

out comes pee pee

swish swish swish


Chorus:
Ab
It's so yummy
Db
It's so good
C
mmm mmm mmm
C
finger licken' pud
--
--
sten@ix.netcom.com (Scott)
All right son, the party's over.  Put down that grenade.
---- End Forwarded Message



 


To: Guitar@Nevada.edu
Status: O

---- Begin Forwarded Message
220 48753  article








References: 
 

NNTP-Posting-Host: ix-esc-ca3-28.ix.netcom.com

Xref: ix.netcom.com alt.guitar.tab:64450
rec.music.makers.guitar.tablature:48753



>
>
>                            Transcribed by,
>                                    Brian Ebbitt

Intro, Verse:
e---------------------------------|
b--------2--0--2------------------|
g----2----------------------------|
d------0--------------------------|
a-----------------4-s-7-s-9-------|
E---------------------------------|
It's so juicy

and smells like fish

out comes pee pee

swish swish swish


Chorus:
Ab
It's so yummy
Db
It's so good
C
mmm mmm mmm
C
finger licken' pud
--
--
sten@ix.netcom.com (Scott)
All right son, the party's over.  Put down that grenade.


Important: The song above is NOT stored on the Chordie server. The original song is hosted at www.guitaretab.com. Chordie works as a search engine and provides on-the-fly formatting. Chordie does not index songs against artists'/composers' will. To remove this song please click here.

This song is displayed as text-only. Transposing and tuning is only available for chordpro-songs.

Login - add to songbook

Rating click stars to rate

Layout
Accuracy

SHARE PAGE  




You need to log in to post comments