Guitar Tabs, Chords and Lyrics


Camouflage   Coheed and Cambria



Intro/1st verse
e|----------------------------------------------------|
B|------6-------8-----6-------8-----6-------8---6---4-|
G|--7-8---8-7-----7-8---8-7-----7-8---8-7-----7---5---|
D|5-----------5-------------5-------------5-----------|
A|----------------------------------------------------|
D|----------------------------------------------------|
Chorus
e|-------------------|
B|-------------------|
G|-------------------|
D|-------------------|
A|55-5/6-66-1-0h1111-|
D|55-5/6-66-1-0h1111-|
Fill
e|------------------------|
B|------------------------|
G|------------------------|
D|------------11-11-11-11-|
A|5-55-5-55-6-------------|
D|5-55-5-55-6-------------|
Chorus Guitar 2 (2nd time)
e|------------------------|
B|------------------------|
G|----------*-*-*-*-*-*-*-|
D|----------0-1-0-1-1-1-1-|
A|55-5/6-66---------------|
D|55-5/6-66---------------|
I wish you'd leave me alone...
e|-------------------------|
B|-------------------------|
G|--*---*---*---*------*---|
D|--8---7---8---7h8h10-8p7-|
A|5---5---5---5------------|
D|-------------------------|
cont...
e|-------------------------|
B|-------------------------|
G|-------------------------|
D|-------------------------|
A|0-8-0-7-0-8-0-7h8/10-8p7-|
D|0-8-0-7-0-8-0-7h8/10-8p7-|
Chorus 2
e|--------------------|
B|--------------------|
G|--------------------|
D|-----4444-----------|
A|11-1-2222-44-4-6666-|
D|11-1------44-4-6666-|
Fill
e|--------------------|
B|--------------------|
G|--------------------|
D|-----------11-11-11-|
A|1-11-11-11----------|
D|1-11-11-11----------|
Verse 2
e|--------------------|
B|--------------------|
G|----------------*---|
D|--------------8-8/9-|
A|11-11-11-11-6-------|
D|11-11-11-11---------|
pm.. .. .. .. .
Interlude
e|-------------------------------------------------|
B|-------------------------------------------------|
G|---998888----------------------------------------|
D|---xxxxxx-x2-------------------------------------|
A|4~-666666----1-0-1111-1-0-1111-1-0-1111-1-0-1111-|
D|-------------1-0-1111-1-0-1111-1-0-1111-1-0-1111-|


Important: The song above is NOT stored on the Chordie server. The original song is hosted at www.guitaretab.com. Chordie works as a search engine and provides on-the-fly formatting. Chordie does not index songs against artists'/composers' will. To remove this song please click here.

This song is displayed as text-only. Transposing and tuning is only available for chordpro-songs.

Login - add to songbook

Rating click stars to rate

Layout
Accuracy

SHARE PAGE  




You need to log in to post comments