Guitar Tabs, Chords and Lyrics


The Echomaker  Coheed and Cambria

    [C]        [Cadd9]          [C11]        [Cadd9]         [C]     [Cadd9]           [C11]                               
e|--------------------1-------0-------------------------1-------0-----------|
B|--1-------3-----------3-------3------1-------3----------3-------3---------|
G|----0-------0-----------0-------0------0-------0----------0-------0-------|
D|------2-------2-----------2--------------2-------2---------2--------------|
A|--3-----3-------3--3--------------3--3-----3-------3--3--------------3----|
E|--------------------------------------------------------------------------|


G F(picked)
e|-3------------3----3----3--------------3p0----3-----------------------------|
B|---3----------3----3----3-----1-----------1---------------------------------|
G|-----0--------0---------0-----2-------------0-------------------------------|
D|-------0------0---------0-----3---------------------------------------------|
A|---------2----2---------2-----3---------------------------------------------|
E|-3---------3--3------3--3---------------------------------------------------|


In the verse he uses the finger picking, but I'm just going to put the chords.


VERSE

[C]I'm  [Cadd9] no    [C11] sav-i[Caddd9]or,    Your   [C] favo[Cadd9]rite   [C11]  sin[Cadd9]-ner

In[G] steps, can call me, [F]friend,
[C]Im   [Cadd9]not    [C11] cra-z[Cadd9]y,    just   l[C]ike  [Cadd9]be    [C11]  stu[Cadd9]-pid
so[G] hell, just let me [F]kill
PRECHORUS

[F]There are no right words, to [G]fill, all the holes inside my

[F]head, There are no memories , worth [G]remembering
CHORUS

Go t[C]ell them the right things, don't be scared

the [G]devil's got nothing on, you so why should you c[F]are?
We'll all be dead a[C]gain!
[C]You cant cure me, doctor please
If it [G]makes you happy then why cant you believ[F]e me?
Im the void, im the end of l[C]iving?
VERSE

[C]Im   j[Cadd9]ust     [C11]laug-[Cadd9]hing  at  yo[C]ur, sc[Cadd9]ream, s[C11]tag-ger[Cadd9]ed

So [G]run....          I'll catch you when I'[F]m done
Oh [C]I'm [Cadd9]not    [C11]cra -[Cadd9] zy,    Oh [C]yeah,[Cadd9] Im    [C11] stu-[Cadd9]pid
So [G]hell, just let me,[F] kill
PRECHORUS

[F]There are no right words, to [G]fill, all the holes inside my

[F]head, There are no memories , worth [G]remembering
CHORUS

Go t[C]ell them the right things, don't be scared

the [G]devil's got nothing on, you so why should you c[F]are?
We'll all be dead a[C]gain!
[C]You cant cure me, doctor please
If it [G]makes you happy then why cant you believ[F]e me?
Im the void, im the end of l[C]iving?
(vocalization etc).


Well, there it is. Hope it helps, and please don't hesitate to point out my mistakes

Important: The song above is NOT stored on the Chordie server. The original song is hosted at www.guitaretab.com. Chordie works as a search engine and provides on-the-fly formatting. Chordie does not index songs against artists'/composers' will. To remove this song please click here.

Text color:
Chord color:
Chord grids: 
Font size:    
Page size: 

C C11 Cadd9 Caddd9 F G
variations - click chord images

Login - add to songbook

Transpose chords

Tuning

Rating click stars to rate

Layout
Accuracy

SHARE PAGE  




You need to log in to post comments