Guitar Tabs, Chords and Lyrics


Disciples Anthem   Coheed and Cambria


-------------------------------------------------------------------------------











-------------------------------------------------------------------------------



e|--------------------|



B|--------------------|  



G|-12-----------------|



D|-12-x16-11-----X-5--| X6



A|-10-----11-x12-X-5--|



E|--------9------X-3--|



e|----------------------|



B|----------------------|



G|----------------------| 



D|-----4---------5------| X4



A|---4---4-----5---5----|



E|-2-------0-3-------0--|



e|--------------------------------- ----------|



B|--------------------------------- ----------|



G|-11----11/12--------9/11--------- --4-------|



D|----12---------10--------12--X2-- --4--7----| X2 



A|--------------------------------- --2--7----|



E|--------------------------------- -----5----|



e|----------------|



B|----------------|



G|-7------12------|



D|-7-X16--12-X16--| X4



A|-5------10------|



E|----------------|



e|--------------------------------------------------|



B|--------------------------------------------------|



G|-7-7-XX-77-7-7--[2]/[3]/[4]/[5]------[7]----------|



D|-7-7-XX-77-7-7-------------------9-9-------5------| X4



A|-5-5-XX-55-5-5-------------------9-9-------5-X8---|



E|---------------------------------7-7-------3------|





                   ++++++++++tremelo pick








Shabutie, shabutie, shabutie, yeah, well I'm a disciple...





                                                                                     


e|-----------------------------|
B|-----------------------------|
G|-7------6------4-------------|
D|-7-X16--6-X16--4-X16--7------| X2
A|-5------4------2------7-X16--|
E|----------------------5------|











Coulda sworn your beautiful.


A beautiful girl whose smiles could cut me.





                                                                                     


e|--------------------------------------------------|
B|--------------------------------------------------|
G|-7-7-XX-77-7-7--[2]/[3]/[4]/[5]------[7]----------|
D|-7-7-XX-77-7-7-------------------9-9-------5------| X4
A|-5-5-XX-55-5-5-------------------9-9-------5-X8---|
E|---------------------------------7-7-------3------|





                   ++++++++++tremelo pick








Shabutie, shabutie, shabutie, yeah, well I'm a disciple...





                                                                                     


e|-----------------------------|
B|-----------------------------|
G|-7------6------4-------------|
D|-7-X16--6-X16--4-X16--7------| X2
A|-5------4------2------7-X16--|
E|----------------------5------|



Important: The song above is NOT stored on the Chordie server. The original song is hosted at www.guitaretab.com. Chordie works as a search engine and provides on-the-fly formatting. Chordie does not index songs against artists'/composers' will. To remove this song please click here.

This song is displayed as text-only. Transposing and tuning is only available for chordpro-songs.

Login - add to songbook

Rating click stars to rate

Layout
Accuracy

SHARE PAGE  




You need to log in to post comments