Guitar Tabs, Chords and Lyrics


Everything Evil Acoustic   Coheed and Cambria



Hey, hopefully you've seen my other tab for The Crowing Acoustic although i was
when i posted it = / well anyway here is the tab for Everything Evil Acoustic i hope you 
it
feel free to email or im me at...

thecrimsonletters@yahoo.com and thecrowingsecret (AIM)

thanks! = ]

EVERYTHING EVIL

Standard Tunining (EBGDAE)

  VERSE (Wait...For...Everything...)
e|------------------------------------|
b|------------------------------------|
g|------------------------------------|
d|------------------------------------|
a|---9-9---9-9----------9-9----7------|
e|---7-7---7-7---0-0h7------10---9-10-|

e|---------------------------------|
b|---------------------------------|
g|---------------------0-----0-----|
d|-----------------------7-----0---|
a|--10-10---10-10----9-----9-------|
e|---7--7----7--7------------------|

e|------------------------------------|
b|------------------------------------|
g|------------------------------------|
d|------------------------------------|
a|---5-5---5-5----------5-5--7-5-4-0--|
e|---3-3---3-3---0-0h3----------------| X2


  CHORUS (I Felt Much Better...)
e|------------------------------------------|
b|------------------------------------------|
g|------------------------------------------|
d|------------------------------------------|
a|-55--55--55--55--55--555--55--55--555-55--|
e|-33--33--33--33--32--000--00--00--000-23--| X4


e|-------------------------------------------|
b|-------------------------------------------|
g|-------------------------------------------|
d|-------10-10--------10-10--------10-10-----|
a|-10-10--8--8--10-10--8--8--10-10--8--8--10-|
e|--8--8---------8--8---------8--8---------8-|

  BRIDGE Pt.I (Jessie, Just Come Look...)
e|-------------------------------------------------------------|
b|-------------------------------------------------------------|
g|-------------------------------------------------------------|
d|-------------------------------------------------------------|
a|-11-11--11--12-12--11-11--11-11--11-11--11-11--14-14--14-14--|
e|--9--9---9---9--9---9--9---9--9---0--0---0--0--12-12--12-12--|

e|-----------------------------------------------------|
b|-----------------------------------------------------|
g|-----------------------------------------------------|
d|-----------------------------------------------------|
a|---7-6--------9-9--9--9/11--77-77-77-77-77-77-77-77--|
e|-7-----7-9-7--7-7--7--7/-9--55-55-44-44-55-55-44-44--|

  BRIDGE Pt.II (Stay Until Wednsday...)
e|------------------------------------|
b|------------------------------------|
g|--------4---------------------------|
d|-2------4------6------7-------------|
a|-2-X16--2-X16--6-X16--7-X16---------| X2
e|-0-------------4------5-------------|
PM .      .      .      .

  Outro (Would You Run?)
e|------------------------------------|
b|------------------------------------|
g|------------------------------------|
d|-2------11------9------7------------| X4
a|-2-X16--11-X16--9-X16--7-X16--------|
e|-0-------9------7------5------------|


(VERSE)
Wait for..
Everything evil in you comes out
I'll stay when we'll only motivate sound instead, Sergeant.
Make for the table...
In hopes that I won't be afraid again
call when enabled
And send the leader out against...
I will
Stage a reenactment in a false pretense
Exist inflict
Unworthy unconsciousness
Why debate when the actions suppressed?
Then kill the acquitted
Listen to the sounds that remain in question
In hopes to solidify a truce
Amongst the children and the jury that stands the verdict alive
Here among the dead

Evolve Monstar!
Show me the things that I've never wanted done.
Evolve Monstar!
Do to me the things I never wanted done...

(CHORUS)
I... I felt much better than this before.
If they find out to avoid
Then the accidents kept hidden away
But if they stay...

(VERSE)
Blood hungry, cannibalistic unfit family ties
In a series of knocks
To the young girl's head side
Come write me a letter and paste it on my refrigerator door
Inspected inspector,
i think we've found something over here

(CHORUS)
I... I felt much better than this before.
If they find out to avoid
Then the accidents kept hidden away
But if they stay...

(BRIDGE Pt.I)
Jesse!
Just come look at what your brother did,
Here he did away with me.
[x2]

(BRIDGE Pt.II)
Stay until Wednesday,
And write me a child-like letter, pretending.
At war here in Thursday.
Let's make this our last day at home by the fence.

(OUTRO)
Would you run? Would you run?
Would you run down past the fence?
Would you run? Would you run?
Would you run down past the fence? (FBI!)

And she screamed,
Claudio! Dear Claudio!
I wish, God damn it, we'll make it if you believe!
And she screamed,
Claudio! Dear Claudio!


Important: The song above is NOT stored on the Chordie server. The original song is hosted at www.guitaretab.com. Chordie works as a search engine and provides on-the-fly formatting. Chordie does not index songs against artists'/composers' will. To remove this song please click here.

This song is displayed as text-only. Transposing and tuning is only available for chordpro-songs.

Login - add to songbook

Rating click stars to rate

Layout
Accuracy

SHARE PAGE  




You need to log in to post comments