Guitar Tabs, Chords and Lyrics


Cassiopeia   Coheed and Cambria



Cassiopeia



e|--------0------------------------| 
b|--------5-5----------------------| 
g|----6-------6--------------------| 
D|--7---7-------7-6h7-6-7----7~----| 
A|-----------------------7--0~-----| 
D|--------------------------0~-----| 

e|--------------------------------| 
b|--------5-----------------------| 
g|----6------6--------------------| 
D|--7---7------7-6h7-6-7----7~----| 
A|----------------------7--0~-----| 
D|-------------------------0~-----| 

wide 
wide 
wide open 

wide open 
wide open 

cassio, could you love me more? 
more 
can we be friends? 
on a journey to Tibet 
I call freedom 
words unsung 

e|-----5-----5-----5-----5-----| 
b|-----5-----5-----5-----5-----| 
g|-7-7-7-----7-7-7-7-----7-----| 
D|-7-7-7-7-7-7-7-7-7-7-7-7-----| 
A|-5-5---5-5---5-5---5-5-------| 
D|-5-5---5-5---5-5---5-5-------| 

Hold me close 
don't let the wind follow 
don't let the wind 

e|--------------------| 
b|--------------------| 
g|--------------------| 
D|-0-2-2-2-2/4-0--0---| 
A|-0-2-2-2-2/4-0--0---| 
D|-0-2-2-2-2/4-0--0---| 

take us away 

cassio 
why the fuck would you do anything in the world that long? 
it's my freedom 

cassio, cassio 

e|---------------------------------| 
b|--------5------------------------| 
g|----6------6---------------------| 
D|--7---7------7-6h7-6-7----7~-----| 
A|----------------------7--0~------| 
D|-------------------------0~------| 

cassio, can you stomach what i've done 
oh, to your soul? 
to your soul 
can we drown? 
get caught in muddy waters? 
when you're down? 
whenever i die 

e|-----5-----5-----5-----5-----| 
b|-----5-----5-----5-----5-----| 
g|-7-7-7-----7-7-7-7-----7-----| 
D|-7-7-7-7-7-7-7-7-7-7-7-7-----| 
A|-5-5---5-5---5-5---5-5-------| 
D|-5-5---5-5---5-5---5-5-------| 

Hold me close 
don't let the wind follow 
don't let the wind 

e|--------------------| 
b|--------------------| 
g|--------------------| 
D|-0-2-2-2-2/4-0--0---| 
A|-0-2-2-2-2/4-0--0---| 
D|-0-2-2-2-2/4-0--0---| 

take us away 

cassio 
why the fuck would you do anything in the world that long? 
it's my freedom 

cassio, cassio... 

e|------------------------| 
b|------------------------| 
g|-7-7-7-7-------------7--| 
D|-7-7-7-7-2/4-4-4-4-4-7--| 
A|-5-5-5-5-2/4-4-4-4-4-5--| 
D|-5-5-5-5-2/4-4-4-4-4-5--| 

never let me go 
she's been higher 
its my fault 
she never let up 
its my only way out 
its the only salvation 
ooh yea. 

e|------------------------| 
b|------------------------| 
g|-7-7-7-7-------------0--| 
D|-7-7-7-7-2/4-4-4-4-4-0--| 
A|-5-5-5-5-2/4-4-4-4-4-0--| 
D|-5-5-5-5-2/4-4-4-4-4-0--| 
its my final regret 

e|--------------------------------| 
b|--------5-----------------------| 
g|----6------6-------------------| 
D|--7---7------7-6h7-6-7----7~-----| 
A|----------------------7--0~-----| 
D|-------------------------0~-----| 

e|--------------------| 
b|--------------------| 
g|--------------------| 
D|-0-2-2-2-2/4-0--0---| 
A|-0-2-2-2-2/4-0--0---| 
D|-0-2-2-2-2/4-0--0---| 

down 
(don't fall) 
come crashing down 
down 
down 
now we're crashing down 
down 
yeah 


e|--14-15-14-17---------------------| 
b|----------------------------------| 
g|----------------------------------| 
D|----------------------------------| 
A|----------------------------------| 
D|----------------------------------| 

e|--14-15-14-17-10------------------| 
b|----------------------------------| 
g|----------------------------------| 
D|----------------------------------| 
A|----------------------------------| 
D|----------------------------------| 

e|--14-15-14-17-10------------------| 
b|----------------------------------| 
g|----------------------------------| 
D|----------------------------------| 
A|----------------------------------| 


Important: The song above is NOT stored on the Chordie server. The original song is hosted at www.guitaretab.com. Chordie works as a search engine and provides on-the-fly formatting. Chordie does not index songs against artists'/composers' will. To remove this song please click here.

This song is displayed as text-only. Transposing and tuning is only available for chordpro-songs.

Login - add to songbook

Rating click stars to rate

Layout
Accuracy

SHARE PAGE  




You need to log in to post comments