Guitar Tabs, Chords and Lyrics


The End Complete Ii Radio Bye Bye   Coheed and Cambria



Song: The End Complete: II - Radio Bye Bye
Album: Prologue: Good Apollo I'm Burning Star IV, Volume 2: No World For Tomorrow
Artist: Coheed And Cambria
Tabbed by: Ongeboren
Email: motchell_heebee@yahoo.com.au

This tab is for Claudio's part. Pretty simple, and a great song. If there’s any 
feel free to email me with any changes that should be made. Please comment and rate.


Order:
Intro
Verse x2
Pre-chorus x2
Chorus x2
Intro
Verse x2
Pre-chorus x4
Chorus x2
Intro x2
-Travis' bridge-
Pre-chorus x4
Chorus x(until it fades out)


Intro
e|-------------------------------------------------------|
B|-------------------------------------------------------|
G|-------------------------------------------------------|
D|---------0h2---------0h2---------9h10p9---------9h10p9-|
A|-3-3-0h3-----3-3-0h3-----7-7-5h7--------7-7-5h7--------|
E|-1-1---------1-1---------5-5------------5-5------------|
     .           .           .              .

e|-------------------------------------------------------------|
B|-------------------------------------------------------------|
G|-------------------------------------------------------------|
D|---------0h2---------0h2---------12-10-9----------12-10-9----|
A|-3-3-0h3-----3-3-0h3-----7-7-------------10-10-10---------10-|
E|-1-1---------1-1---------5-5---------------------------------|
     .           .           .

Verse
e|-------------------------------------------------------|
B|-------------------------------------------------------|
G|-------------------------------------------------------|
D|---------0h2---------0h2---------9h10p9---------9h10p9-|
A|-3-3-0h3-----3-3-0h3-----7-7-5h7--------7-7-5h7--------|
E|-1-1---------1-1---------5-5------------5-5------------|
   . . . .     . . . .     . . . .        . . . .

e|-------------------------------------------------------------|
B|-------------------------------------------------------------|
G|-------------------------------------------------------------|
D|---------0h2---------0h2---------12-10-9----------12-10-9----|
A|-3-3-0h3-----3-3-0h3-----7-7-------------10-10-10---------10-|
E|-1-1---------1-1---------5-5---------------------------------|
   . . . .     . . . .     . .

Pre-chorus
e|---------------------------------|
B|---------------------------------|
G|---------------------------------|
D|-----2-2-2-2-2-2-----------------|
A|-3-3-0-0-3-3-3-3-5-5-5-5-5-5-5-5-|
E|-1-1-------------3-3-3-3-3-3-3-3-|
   . . . . . . . . . . . . . . . .

Chorus
e|-----------------------------------------------------------------|
B|-----------------------------------------------------------------|
G|-----------------------------------------------------------------|
D|-----------------7-7-7-7-7-7-7-7-2-2-2-2-2-2-2-2-----------------|
A|-3-3-3-3-3-3-3-3-5-5-5-5-5-5-5-5-0-0-0-0-0-0-0-0-5-5-5-5-5-5-5-5-|
E|-1-1-1-1-1-1-1-1---------------------------------3-3-3-3-3-3-3-3-|


And thats it, hope you enjoy XD


| /  slide up
| \  slide down
| h  hammer-on
| p  pull-off
| ~  let ring
| +  harmonic
| x  Mute note
| .  Palm mute


Important: The song above is NOT stored on the Chordie server. The original song is hosted at www.guitaretab.com. Chordie works as a search engine and provides on-the-fly formatting. Chordie does not index songs against artists'/composers' will. To remove this song please click here.

This song is displayed as text-only. Transposing and tuning is only available for chordpro-songs.

Login - add to songbook

Rating click stars to rate

Layout
Accuracy

SHARE PAGE  




You need to log in to post comments