Guitar Tabs, Chords and Lyrics


Suzanne   Leonard Cohen



JOURNEY - SUZANNE
Album: Raised ON Radio (1986)


Ok! One of my favorites. Here's A very underrated Journey song from
a phenomenal album... Raised On Radio.
Standard tuning.


b= bend
r= unbend (release)
h= hammer on
p= pull off


((((no guitar part for the main verses on the album,
but here's how it would be played)))
(((picked softly... the neal schon way.... )))

VERSE:

    I see your face at the movieeeees...

E------1-------------------1-----------------|
B-------4-------------------4----------------|
G----3---3---------------3---3---------------|
D---1------------------1---------------------|
A--------------------------------------------|
E--------------------------------------------|


    I hear your voice on the radiiiiooooo....

E---------1-----------------1----------------|
B-----------1-----------------1--------------|
G-------------3-----------------3------------|
D------3-----------------3-------------------|
A-----1-----------------1--------------------|
E---3-----------------3----------------------|


    Making love on the silver screeeeeen....

E------1-------------------1-----------------|
B-------4-------------------4----------------|
G----3---3---------------3---3---------------|
D---1------------------1---------------------|
A--------------------------------------------|
E--------------------------------------------|


    I want you more than you will everrr knooow..

E---------1-----------------1----------------|
B-----------1-----------------1--------------|
G-------------3-----------------3------------|
D------3-----------------3-------------------|
A-----1-----------------1--------------------|
E---3-----------------3----------------------|

BRIDGE:


(((here's where you start hearing the guitar on the album)))

    Tradition.......

E---------------------------------10---------|
B---11p10--------------11p10--------11-------|
G---------10~~---------------10--------8-----|
D-------------------------------8------------|
A--------------------------------------------|
E--------------------------------------------|


     Infatuatiooooonn.....

E--------------------------------------------|
B---11p10--------------11p10-----------------|
G---------10~~---------------10--------------|
D-------------------------------8~~~---------|
A--------------------------------------------|
E--------------------------------------------|


((( neal sort of plays the bassline really
distorted in the background during the chorus)))

Whoooaoohh  SUZANNNNNNNNNNNNE!
So far away... Remeber Suzannnee....


E--------------------------------------------|
B--------------------------------------------|
G--------------------------------------------|
D--------------------------------------------|
A----------5---8----------------5/6---6/8~\6-|
E---6--8-------------3---5---6---------------|


and finally the solo...

E----------18b20~~~------18b20r18-18--17--17-|
B---15/16----------15/16---------------------|
G--------------------------------------------|
D--------------------------------------------|
A--------------------------------------------|
E--------------------------------------------|

E---------17b18---------17b18r17-17--15--15--|
B--14/15----------14/15----------------------|
G--------------------------------------------|
D--------------------------------------------|
A--------------------------------------------|
E--------------------------------------------|


E--------20b22~~~--20b22h23-20--18--20-------|
B--15/16-------------------------------------|
G--------------------------------------------|
D--------------------------------------------|
A--------------------------------------------|
E--------------------------------------------|


E---------18b20h22-18----17h18-17h18p17------|
B--15/16-------------------------------------|
G--------------------------------------------|
D--------------------------------------------|
A--------------------------------------------|
E--------------------------------------------|


E---18--15------17----13---------------------|
B--------------------------------------------|
G--------------------------------------------|
D--------------------------------------------|
A--------------------------------------------|
E--------------------------------------------|

Those are all the parts to the song. Big Ups
to my fellow Journey fans. Enjoy.


Important: The song above is NOT stored on the Chordie server. The original song is hosted at www.guitaretab.com. Chordie works as a search engine and provides on-the-fly formatting. Chordie does not index songs against artists'/composers' will. To remove this song please click here.

This song is displayed as text-only. Transposing and tuning is only available for chordpro-songs.

Login - add to songbook

Rating click stars to rate

Layout
Accuracy

SHARE PAGE  




You need to log in to post comments