Bubbly Acoustic

Colbie Caillat

 AAmaj7Dsus2A
   I've been awake for a while now    you've got me feeling like a child now
 AAmaj7Dsus2A
   cause every time i see your bubbly face    I get the tinglies in a silly place

Chorus 1:
 AAmaj7Dsus2A
It starts in my toes makes me crinkle my nose where ever it goes i always know
 AAmaj7Dsus2A
that you make me smile  please stay for a while now  just take your time  where ever you go

Verse 2:
 AAmaj7Dsus2A
   The rain is falling on my window pane    We are hiding in a safer place
 AAmaj7Dsus2A
   Undercover staying dry and warm    You give me feelings that I adore

(Repeat Chorus 1)

Bridge:
 C#mDC#mBm
   What am i gonna say     when you make me feel this way
 C#mD
  I just  hmmm

(Repeat Chorus 1)

Interlude: Dadadada...
 AAmaj7Dsus2A
     (x2)

Verse 3:
 AAmaj7Dsus2A
   I've been awake for a while now    you've got me feelin like a child now
 AAmaj7Dsus2A
   cause every time you hold me in your arms    I'm comfortable enough to feel your warmth

Chorus 2:
 AAmaj7Dsus2A
It starts in my soul  and I lose all control  when you kiss my nose, the feeling shows
 AAmaj7Dsus2A
that you make me smile baby  just take your time now  holdin' me tight 

 AAmaj7Dsus2A
Wherever, wherever, wherever you go
(Repeat)
 AAmaj7Dsus2A
   oh wherever you go, always I know
 AAmaj7Dsus2A
   cause you make  me smile just for a while

 AAmaj7Dsus2A
                                                                               
Outro: Plucking pattern (guitar)
e|---------9--------|---------9-------|---------7-------|---------5-------|
B|-----------10-----|-----------9-----|-----------7-----|-----------5-----|
G|-----6--------6---|-----9-------9---|-----7-------7---|-----6-------6---|
D|---7---7--------7-|-6-7---7-------6-|---7---7-------7-|---7---7-------7-|
A|-0----------------|-----------------|-5---------------|-0---------------|
E|------------------|-----------------|-----------------|-----------------|


Outro: Plucking pattern (ukulele)
a|-------0-------0-|-------0-------0-|-------0-------0-|-------0-------0-|
e|---0-------0-----|---0-------0-----|---0-------0-----|---0-------0-----|
c|-----1-------1---|-----1-------1---|-----2-------2---|-----1-------1---|
g|-2-------2-------|-1-------1-------|-2-------2-------|-2-------2-------|



Corrected by squirrelygurl. View original
A Amaj7 Bm C#m D Dsus2
variations - click chord images
Transpose chords:
Tuning:
Cool service:
View: Size:
A  A  A
Rating:
Layout:
  • Currently 3.5/5 Stars.
  • 1
  • 2
  • 3
  • 4
  • 5
 
Accuracy:
  • Currently 3.1/5 Stars.
  • 1
  • 2
  • 3
  • 4
  • 5
 
click stars to rate
Chordie recommends:
Check out JamPlay.com for online video guitar lessons
Songbook:
Login to add this song to your songbook
Support the artist
Preview/buy this song
MSN Music
Why this non-profit ad?

 
login to add comments/video/corrections