Guitar Tabs, Chords and Lyrics


No One   Cold



Cold
No One

C F Bb Eb G C
/=SLIDE
^=BEND
Intro/Verse/Bridge: (flanger)
X4
c:------------------------------------------------|
G:------------------------------------------------|
Eb:-----------------------------------------------|
Bb:---9-9-10-10-10-10--10---9-9-9-9-9^------------|
F:---0-0-0--0--0--8--8---8/7-7-7------------------|
C:------------------------------------------------|

Chorus: just keep repeating this a bunch of times
c:------------------------------------------------|
G:------------------------------------------------|
Eb:-7-7-7-7-7-7-7-7--5-5-5-5--4-4-4-4-------------|
Bb:-x-x-x-x-x-x-x-x--x-x-x-x--x-x-x-x-------------|
F:--5-5-5-5-5-5-5-5--3-3-3-3--2-2-2-2-------------|
C:------------------------------------------------|

Interlude: "I'm so sick of this terrible instinct..."
c:--------------------------------------------------------------|
G:--------------------------------------------------------------|
Eb:-------------------------9-9-9-9---------------7-7-7-7^------|
Bb:---7-7-9--9^-7-7-10-10-10---------10-10-9-9-9-9---------9----|
F:---0-0-0-------0-0--------------------------------------------|


Important: The song above is NOT stored on the Chordie server. The original song is hosted at www.guitaretab.com. Chordie works as a search engine and provides on-the-fly formatting. Chordie does not index songs against artists'/composers' will. To remove this song please click here.

This song is displayed as text-only. Transposing and tuning is only available for chordpro-songs.

Login - add to songbook

Rating click stars to rate

Layout
Accuracy

Jango Player

SHARE PAGE  




You need to log in to post comments