Guitar Tabs, Chords and Lyrics


Just Got Wicked Acoustic   Cold











Cold-Just Got Wicked(acoustic)
-Standard Tuning-standard C to play along with song
-This is a sweet studio acoustic track i found last night,
I keep my acoustic guitar in standard D tuning, and i know Cold
plays in standard C-Inlyghtened1


-Intro-
----------0-0-0-0-0-0-0-0-0-0----------------|
--------x-5-5-5-5/4-4-4-4/3-3p0--------------|
--------x-0-0-0-0-0-0-0-0-0-0----------------|
----2-2-x------------------------------------|
----2-2-x------------------------------------|
----0-0-x------------------------------------|

-Verses/Outro Chorus-
---------------------------------|---------------------------|
--------x------------------------|------x------x-----x-------|
--------x------------------------|------x------x-----x-------|
----2-2-x-4-4-4-4-5-5-5-5-7-7p0--|--2-2-x4-4-4-x5-5-5x7-7-7--|
----2-2-x-4-4-4-4-5-5-5-5-7-7p0--|--2-2-x4-4-4-x5-5-5x7-7-7--|
----0-0-x-2-2-2-2/3-3-3-3/5-5p0--|--0-0-x2-2-2-x3-3-3x5-5-5--|

-Chorus-
-------------------------------------------------------|
-----------0-0-0-0-0-0-0----------0-0-0-0-0-0-0--------|
-----------0-0-0-0-0-0-0----------0-0-0-0-0-0-0--------|
-----------7-7-7-7-7-7-7----------7-7-7-7-7-7-7--------|
-------5-5-5-5-5-5-5-5-5------5-5-5-5-5-5-5-5-5--------|
--/7-7-----7-7-7-7-7-7-7--3-3-----3-3-3-3-3-3-3--------|

-Second guitar Chorus-
-------------------------------------------------|
---------10-----10-----------10-----10p7---------|
-------7----7------7-------7----7--------7-------|
-----9--------9------9---7--------7--------7-----|
-------------------------------------------------|
-------------------------------------------------|

-Breakdown-(right before "123 here i come with the wicked")
-----------------------------------------------12*-----|
---------5*------------------------------------12*-----|
-----------5*-x-----xx----------x----x-xxxxxx----------|
----2-2-------x2-2--xx2-2-------x2-2-x-xxxxxx----------|
----2-2-------x2-2--xx2-2-------x2-2-x-xxxxxx----------|


Important: The song above is NOT stored on the Chordie server. The original song is hosted at www.guitaretab.com. Chordie works as a search engine and provides on-the-fly formatting. Chordie does not index songs against artists'/composers' will. To remove this song please click here.

This song is displayed as text-only. Transposing and tuning is only available for chordpro-songs.

Login - add to songbook

Rating click stars to rate

Layout
Accuracy

SHARE PAGE  




You need to log in to post comments