Chordie logo

When Angels Fly Away   Cold



verse x5
eb(----------------------------------------------------------)
bb(----------------------------------------------------------)
gb(----------------------------------------------------------)
db(----------------------------------------------------------)
ab(----------------------------------------------------------)
Db(--4-4-44-4-44-4-7-7-77-7-77-7-0-0-00-0-00-0-2-2-22-2-22-2-)
   pm. . .. . .. . . . .. . .. . . . .. . .. . . . .. . .. . 

verse(lead) with delay x8
eb(-----------------9-9-9999-)
bb(--10-10-10101010----------)
gb(--------------------------)
db(--------------------------)
ab(--------------------------)
Db(--------------------------)

chorus x2
eb(--------------------------------------)
bb(--------------------------------------)
gb(------------------11-11-11-11---------)
db(--9-9-9-9-8-8-8-8-11-11-11-11-9-9-9-9-)
ab(--7-7-7-7-6-6-6-6--9--9--9--9-7-7-7-7-)
Db(--7-7-7-7-6-6-6-6-------------7-7-7-7-)

chorus(lead) x8
eb(-------)
bb(--10-9-)
gb(-------)
db(-------)
ab(-------)
Db(-------)

bridge
eb(--------------------------------------------------)
bb(--------------------------------------------------)
gb(--------------------------------------------------)
db(--4-x4-x4-444-7-x7-x7-777-0-x0-x0-000-2-x2-x2-222-)
ab(--4-x4-x4-444-7-x7-x7-777-0-x0-x0-000-2-x2-x2-222-)
Db(--4-x4-x4-444-7-x7-x7-777-0-x0-x0-000-2-x2-x2-222-)

solo
eb(-------7------7--------------555--------888-8h9-9-9-999-9/4-)
bb(--10-9---10-9---10-9---7-7-8--------------------------------)
gb(---------------------9--------------------------------------)
db(------------------------------------------------------------)
ab(---------------------------------9-9-11---------------------)
Db(------------------------------------------------------------)

solo contiued
eb(--4/9-9-9-999-4/9-9-9-999-12-12-12-10-9-9-7------------------)
bb(--------------------------------------------10-7-6-5---------)
gb(-----------------------------------------------------9-8-4-6-)
db(-------------------------------------------------------------)
ab(-------------------------------------------------------------)
Db(-------------------------------------------------------------)

solo continued
eb(------5-----5------------------------------)
bb(--777---777---777-------10-1010------------)
gb(------------------6-6-9---------8b/6-------)
db(--------------------------------8b/6-6h7-6-)
ab(--------------------------------6b/4-------)


Important: The song above is NOT stored on the Chordie server. The original song is hosted at www.guitaretab.com. Chordie works as a search engine and provides on-the-fly formatting. Chordie does not index songs against artists/composers will. To remove this song please click here.

This song is displayed as text-only. Transposing and tuning is only available for chordpro-songs.

Login - add to songbook

Rating click stars to rate

Layout
Accuracy

SHARE PAGE  



You need to log in to post comments