E-1-1---1-1-0-h-1-1----1-1--------------------|


B-1-1---1-1-0-h-1-1----1-1--------------------|


G-2-0-h-2-2-2---2-0-h-2-2---------------------|


D-3-3---3-3-3---3-3----3-3--------------------|                 X2


A-3-3---3-3-3---3-3----3-3--------------------|


E-1-1---1-1-1---1-1---1-1---------------------|


 DmAmEm
 And we live in a beautiful world yeah we do yeah we do
We live in a beautiful world

Verse 2:
Am C F(with hammer)
Bones sinking like stones all that we've fought for
Homes all that we've grown all of us are done for

Chorus:
 DmAmEm
 We live in a beautiful world yeah we do yeah we do
We live in a beautiful world

Instrumental verse same chords as before:

Chorus:
 DmAmEm
 We live in a beautiful world yeah we do yeah we do
We live in a beautiful world

Instrumental Verse:

Outro:
 AmCF
 Oh all that I know there's nothing here to run from                    
Cos yes everybody here's got somebody to lean on

2. Shiver
 B-F#m-A9-G#m
Intro:        x 3 A9 - G#m
 E
 So I look in your direction,
 B
And you pay me no attention do you?
 E
 I know you don't listen to me,

Cos you say you see straight through me,
 B
Don't you?

 C#m
But on and on,

From the moment I wake,
 F#
To the moment I sleep,

I'll be there by your side,
 C#m
Just you try and stop me,

I'll be waiting in line,
 B
Just to see if you care

 G#mD#7G#m
Oh, did you want me to change?
 D#7G#m
Well I'd change for good,
 D#7BA9G#m
And I want you to know that you'll always get your way
 D#7B/D#-C#7/9-C#m7/9
And I wanted to say                
 BF#m-A9-G#m
Don't you shiver             
 BF#m-A9-G#m
Don't you shiver             
 BF#mA9G#m
I'll sing it loud and clear 
 A9G#m
And I'll always be waiting for you

 E
So you know how much I need you,
 B
But you never even see me do you?
 B
And is this my final chance of getting you?
 C#m
But on and on,

From the moment I wake,

 F#
To the moment I sleep,

I'll be there by your side,
 C#m
Just you try and stop me,

I'll be waiting in line,
 B
Just to see if you care

 D#7G#m
Did you want me to change?
 D#7G#m
Well I'd change for good,
 D#7B/D#A9G#m
And I want you to know that you'll always get your way
 D#7B/D#-C#7/9-C#m7/9
And I wanted to say...           

 BF#m-A9-G#m
Don't you shiver              
 BF#m-A9-G#m
Don't you shiver,              

 BF#mA9G#m
I'll sing it loud and clear 
 A9G#m
Yeah I'll always be waiting for you
 A9G#m
Yeah I'll always be waiting for you
 A9G#m
Yeah I'll always be waiting for you
 A9
For you, I will always be waiting

 BF#m
And it's you that I see,
 A9G#m
But you don't see me
 BF#m
And its you, that I hear,
 A9G#m
So loud and so clear
 BF#mA9G#m
I sing it loud and clear
 A9G#m
And I'll always be waiting for you
 E
So I look in your direction,

And you pay me no attention,
 E
And you know how much I need you

But you never even see me

Chords:
B: 7 9 9 8 0 0
F#m: 2 4 4 2 2 2
A9: 5 7 7 6 0 0
G#m: 4 6 6 4 4 4
E : 0 2 2 1 0 0
C#m: - 4 6 6 5 4
F# : 2 4 4 3 0 0
D#7: - 6 5 6 4 -
B/D#: - 6 4 4 4 -
C#7/9 : - 4 3 4 4 -
C#m7/9: - 4 2 4 4 -

3. Spies
Tuning:E A C# G B C#

CHORDS USED: C#m:9X0990 F#m:2X0220 E6:020120 A:5X0650 G#m11:4X0440

Badd9:7X0870 B6/9:7X0890 B/A:5X0860
F#m13:2X2200 G#m13:4X4400

D#m7b5:11.X.12.11.10.0 G#sus4:4X0540 G#add11:4X0540 F#:2X0320

Listen for timing, it's kind of complicated
INTRO: C#m

VERSE 1:
 F#mE6
 I awake to find no peace of mind 
 AG#11
I said "How do you live    as a fugitive?"
 F#mE6
Down here, where i cannot see so clear 
 AG#m11
I said "What do i know?"    show me the right way to go

CHORUS:
 F#mG#m11
 And the spies came out of the water
 AG#m11
And your feeling so bad 'cause you know 
 F#mE6
That the spies hide out in every corner
 A
But you cant touch them no
 Badd9
'Cause they're all spies

C#m11.... A.... B6/9.. Badd9.. B6/9.. Badd9..
they're just spies

C#m11.... A.... B6/9.. Badd9.. B6/9.. Badd9..

VERSE 2:
 F#mE6
 I awake to see that no-one is free 
 A
We're all fugitive's
 G#m11
Look at the way we live
 F#mE6
Down here, I cannot sleep from fear, no
 A
i said "Which way do i turn?"
 G#m11
Oh, I forget everything i learn

CHORUS:
 F#mG#m11
 And the spies came out of the water
 AG#m11
And your feeling so bad 'cause you know 
 F#mE6
That the spies hide out in every corner
 A
But you cant touch them no
 Badd9
'Cause they're all spies

C#m11.... A.... B6/9.. Badd9.. B6/9.. Badd9..
they're just spies

C#m11.... A.... B6/9.. Badd9.. B6/9.. Badd9..

BRIDGE:
 B/AAE6/BBadd9
       And if we don't hide here  they're gonna find us
 F#m11G#m13F#m11Badd9
       And if we don't hide now  they're gonna catch us where we sleep
 B/AAE6/BBadd9
       And if we don't hide here  they're gonna find us
D#m7b5.... G#sus4.. G#add11..

C#m11.... A.... B6/9.. Badd9.. B6/9.. Badd9.. (x2)

OUTRO:
 AG#add11
Spies came out of the water
 B/AF#
And your feeling so good 'cause you know 
 F#mE6
That those spies hide out in every corner
 A
And they can't touch you no
 Badd9
'Cause they're just spies

C#m11.... A.... B6/9.. Badd9.. B6/9.. Badd9..
they're just spies

LAST CHORD: C#m13

4. Sparks
Tuning:E,A,D,G,B,d Capo=fret 6 (chords relative to capo)

Chords=
Bbm7=022000 Dbmaj7=x54000
Bbm(maj9)=x64000 Bbm7=x75000
Bbm7/Db=x75000 Ebmadd9=577500
Db9=x87000 Db=355400
Gdim=x42000
Gbmaj7=x23000

Intro In this order = Bbm7, Bbm(maj9, Bbm7/Db,
Gdim,Gmaj7

Verse chords=Dbmaj7,Bbm7, Ebmadd9, Db

Chorus same as intro.

Verse=

Did I drive you away
 Dbmaj7Bbm7
I know what you say
 Dbmaj7Bbm7
You say ohhhh
 Ebmadd9
Sing one you know
 Dbmaj7Db
Chorus=

singing oooooooooooooooooooooooooooooooooooooooooooooooo
 Gmaj7
Outro=

Well I saw sparks
 Dbmaj7Bbm7
Repeat until end, finish on Dbmaj7

5. Yellow
 BBadd11F#6Emaj7
      7 9 0 8 0 0          7 9 0 9 0 0          2 4 4 3 2 0          0 2 0 1 0 0

 G#mF#m11
      4 x 4 4 0 0          2 x 2 2 0 1

Gtr I (E A B G B D#) - 'Acoustic'
Gtr II (E A B G B D#) - 'Electric Rhythm'
Gtr III (E A D G B E) - 'Electric Lead'
 spread cbords in verse/top part in cborus
Gtr IV (E A B G B D#) - 'Electric '

Intro
Q=87
 4/4
  Gtr I
E E E E E E E S S
E E E E E E S S
|-0---0-0-0---0-0-0-|-0---0-0---0-0-0-0-|
|-0-0-0-0-0---0-0-0-|-0---0-0---0-0-0-0-|
|-8-8-8-8-8---8-8-8-|-8---8-9---9-9-9-9-|
|-0---0-0-0-0-0-0-0-|-0-0-0-0-0-0-0-0-0-|
|-9---9-9-9-9-9-9-9-|-9-9-9-9-9-9-9-9-9-|
|-7---7-7-7-7-7-7-7-|-7-7-7-7-7-7-7-7-7-|


 BBadd11
  E E E E  E  E E S S           
E E E E E E S S
|-0---0-0--0----0-0-0-|-0----0-0---0--0--0-0-|
|-0-0-0-0--0----0-0-0-|-0----0-0---0--0--0-0-|
|-8-8-8-8--8----8-8-8-|-8----8-9---9--9--9-9-|
|-0---0-0--0--0-0-0-0-|-0--0-0-0-0-0--0--0-0-|
|-9---9-9--9--9-9-9-9-|-9--9-9-9-9-9--9--9-9-|
|-7---7-7--7--7-7-7-7-|-7--7-7-7-7-7--7--7-7-|

|
| Gtr II
| Q E E +E E E S S H.
+E S S
|-0-----0-(0)---0-0-0-|-0------------(0)-x-0-|
|-0-----0-(0)---0-0-0-|-0------------(0)-x-0-|
|-8-----8-(8)---8-8-8-|-8------------(8)-x-8-|
|-0---0-0-(0)-0-0-0-0-|-0------------(0)-x-0-|
|-9---9-9-(9)-9-9-9-9-|-9------------(9)-x-9-|
|-7---7-7-(7)-7-7-7-7-|-7------------(7)-x-7-|


Main Riff
 B
  Gtr III
 EEEEEEE
  E E E  S
|-7-----7-7-7-7-7-7-7-|-7-7-7-7-7-7-7-7----|
|-0-----0-0-0-0-0-0-0-|-0-0-0-0-0-0-0-0----|
|-9b11==9-9-9-9-9-9-9-|-9r9-9-9-9-9-9-9s13-|
|---------------------|--------------------|
|---------------------|--------------------|
|---------------------|--------------------|

|
| Gtrs I, II
| E E E E E E E E E E E E E E E E
|-0-----0-0-0-0-0-0-0-|-0-0-0-0-0-0-0-0----|
|-0-----0-0-0-0-0-0-0-|-0-0-0-0-0-0-0-0----|
|-8-----8-8-8-8-8-8-8-|-8-8-8-8-8-8-8-8----|
|-0-----0-0-0-0-0-0-0-|-0-0-0-0-0-0-0-0----|
|-9-----9-9-9-9-9-9-9-|-9-9-9-9-9-9-9-9----|
|-7-----7-7-7-7-7-7-7-|-7-7-7-7-7-7-7-7----|


 EEEEEEEEEEEEEEEE
|-11-----11-11-11-11-11-11-11-|--------------------------|
|--0------0--0--0--0--0--0--0-|--0--0--0--0--0--0--0--0--|
|-13b15==13-13-13-13-13-13-13-|-13r13-13-13-13-13-13-13--|
|-----------------------------|--------------------------|
|-----------------------------|--------------------------|
|-----------------------------|--------------------------|

|
| E E E E E E E E E E E E E E E E
|--0------0--0--0--0--0--0--0-|--0--0--0--0--0--0--0--0--|
|--2------2--2--2--2--2--2--2-|--2--2--2--2--2--2--2--2--|
|--3------3--3--3--3--3--3--3-|--3--3--3--3--3--3--3--3--|
|--4------4--4--4--4--4--4--4-|--4--4--4--4--4--4--4--4--|
|--4------4--4--4--4--4--4--4-|--4--4--4--4--4--4--4--4--|
|--2------2--2--2--2--2--2--2-|--2--2--2--2--2--2--2--2--|


 EEEEEEE
  E E E E E E E S S
|-2----2-2-2-2-2-2-2-|-2-2-2-2-2-2-2-2---|
|-0----0-0-0-0-0-0-0-|-0-0-0-0-0-0-0-0---|
|-4b6==4-4-4-4-4-4-4-|-4r4-4-4-4-4-4-4s9-|
|--------------------|-------------------|
|--------------------|-------------------|
|--------------------|-------------------|

|
| E E E E E E E E E E E E E E E E
|-0----0-0-0-0-0-0-0-|-0-0-0-0-0-0-0-0---|
|-0----0-0-0-0-0-0-0-|-0-0-0-0-0-0-0-0---|
|-1----1-1-1-1-1-1-1-|-1-1-1-1-1-1-1-1---|
|-0----0-0-0-0-0-0-0-|-0-0-0-0-0-0-0-0---|
|-2----2-2-2-2-2-2-2-|-2-2-2-2-2-2-2-2---|
|-0----0-0-0-0-0-0-0-|-0-0-0-0-0-0-0-0---|


 EEEEEEEEEEEEEEEE
|-7-----7-7-7-7-7-7-7-|-7-7-7-7-7-7-7-7--|
|-0-----0-0-0-0-0-0-0-|-0-0-0-0-0-0-0-0--|
|-9b11==9-9-9-9-9-9-9-|-9r9-9-9-9-9-9-9--|
|---------------------|------------------|
|---------------------|------------------|
|---------------------|------------------|

|
| E E E E E E E E E E E E E E E E
|-0-----0-0-0-0-0-0-0-|-0-0-0-0-0-0-0-0--|
|-0-----0-0-0-0-0-0-0-|-0-0-0-0-0-0-0-0--|
|-8-----8-8-8-8-8-8-8-|-8-8-8-8-8-8-8-8--|
|-0-----0-0-0-0-0-0-0-|-0-0-0-0-0-0-0-0--|
|-9-----9-9-9-9-9-9-9-|-9-9-9-9-9-9-9-9--|
|-7-----7-7-7-7-7-7-7-|-7-7-7-7-7-7-7-7--|


Verse 1
 BF#6
  Gtrs I, II                         
Q E E Q E E E E E EE E E E Q E E Q EE Q E E E E E E
|-0--0---0--0-0-|-0---0-0-0---0-0-|-0--0---0--0---|-0--0---0---0---|
|-0--0---0--0-0-|-0---0-0-0---0-0-|-2--2---2--2---|-2--2---2---2---|
|-8--8---8--8-8-|-8-8-8-8-8---8-8-|-3--3---3--3-3-|-3--3---3---3-3-|
|-0--0-0-0--0-0-|-0-0-0-0-0-0-0-0-|-4--4-4-4--4-4-|-4--4-4-4-4-4-4-|
|-9--9-9-9--9-9-|-9-9-9-9-9-9-9-9-|-4--4-4-4--4---|-4--4-4-4-4-4-4-|
|-7--7-7-7--7-7-|-7-7-7-7-7-7-7-7-|-2--2-2-2--2---|-2--2-2-2-2-2-2-|


 on repeat
                                    Verse 2  
$
 Emaj7B
  Q  E E E E E E   E EE E E E E E    Q  E EQ  E E   E E E E E E E E
|----0---0---0---|-----0-------0---|--0--0---0--0-0-|-0---0-0-0---0-0-|
|----0---0---0---|-0---0---0---0---|--0--0---0--0-0-|-0---0-0-0---0-0-|
|-1--1-1-1---1-1-|-1---1-1-1-1-1-8-|--8--8---8--8-8-|-8-8-8-8-8---8-8-|
|-0--0-0-0-0-0-0-|-0-0-0-0-0-0-0-0-|--0--0-0-0--0-0-|-0-0-0-0-0-0-0-0-|
|-2--2-2-2-2-2-2-|-2-2-2-2-2-2-2-9-|--9--9-9-9--9-9-|-9-9-9-9-9-9-9-9-|
|-0--0-0-0-0-0-0-|-0-0-0-0-0-0-0-7-|--7--7-7-7--7-7-|-7-7-7-7-7-7-7-7-|

|
| Gtr IV
| W W W W
|----------------|-----------------|-^8-------------|-----------------|
|----------------|-----------------|-^7-------------|-----------------|
|----------------|-----------------|-^8-------------|-----------------|
|----------------|-----------------|----------------|-----------------|
|----------------|-----------------|----------------|-----------------|
|----------------|-----------------|----------------|-----------------|


 F#6Emaj7B
   Q  E E Q  E E   Q  E E EE E E     Q  E E E E EE   E E E E E E E E  
|--0--0---0--0---|-0--0---0---0---|------0---0---0---|-----0-------0---|
|--2--2---2--2---|-2--2---2---2---|------0---0---0---|-0---0---0---0---|
|--3--3---3--3-3-|-3--3---3---3-3-|---1--1-1-1---1-1-|-1---1-1-1-1-1-8-|
|--4--4-4-4--4-4-|-4--4-4-4-4-4-4-|---0--0-0-0-0-0-0-|-0-0-0-0-0-0-0-0-|
|--4--4-4-4--4---|-4--4-4-4-4-4-4-|---2--2-2-2-2-2-2-|-2-2-2-2-2-2-2-9-|
|--2--2-2-2--2---|-2--2-2-2-2-2-2-|---0--0-0-0-0-0-0-|-0-0-0-0-0-0-0-7-|

|
| W W W W
|-^7-------------|----------------|-^12--------------|-----------------|
|-^4-------------|----------------|-^12--------------|-----------------|
|-^6-------------|----------------|-^13--------------|-----------------|
|----------------|----------------|------------------|-----------------|
|----------------|----------------|------------------|-----------------|
|----------------|----------------|------------------|-----------------|


 F#6
   Q    E  E Q  E E   E E EE E E E E    Q    E  E Q  EE   Q  E E E E E E
|--0----0----0--0-0-|-0---0-0-0---0-0-|--0----0----0--0---|-0--0---0---0---|
|--0----0----0--0-0-|-0---0-0-0---0-0-|--2----2----2--2---|-2--2---2---2---|
|--8----8----8--8-8-|-8-8-8-8-8---8-8-|--3----3----3--3-3-|-3--3---3---3-3-|
|--0----0--0-0--0-0-|-0-0-0-0-0-0-0-0-|--4----4--4-4--4-4-|-4--4-4-4-4-4-4-|
|--9----9--9-9--9-9-|-9-9-9-9-9-9-9-9-|--4----4--4-4--4---|-4--4-4-4-4-4-4-|
|--7----7--7-7--7-7-|-7-7-7-7-7-7-7-7-|--2----2--2-2--2---|-2--2-2-2-2-2-2-|

|
| Q H. W Q H. W
|-^8--^(8)----------|-----------------|-^7--^(7)----------|----------------|
|-^7--^(7)----------|-----------------|-^4--^(4)----------|----------------|
|-^8--^(8)----------|-----------------|-^6--^(6)----------|----------------|
|-------------------|-----------------|-------------------|----------------|
|-------------------|-----------------|-------------------|----------------|
|-------------------|-----------------|-------------------|----------------|


 Emaj7BBadd11B
    Q     E  E E E E E   EE E E E E E E   E EE E E E E E   E E E E E E E E
|---------0----0---0---|-----0-------0---|-0-0-0-0-0-0-0-0-|-0-0-0-0-0-0-0-0-|
|---------0----0---0---|-0---0---0---0---|-0-0-0-0-0-0-0-0-|-0-0-0-0-0-0-0-0-|
|---1-----1--1-1---1-1-|-1---1-1-1-1-1-8-|-8-8-8-8-8-8-8-8-|-9-9-9-9-8-8-8-8-|
|---0-----0--0-0-0-0-0-|-0-0-0-0-0-0-0-0-|-0-0-0-0-0-0-0-0-|-0-0-0-0-0-0-0-0-|
|---2-----2--2-2-2-2-2-|-2-2-2-2-2-2-2-9-|-9-9-9-9-9-9-9-9-|-9-9-9-9-9-9-9-9-|
|---0-----0--0-0-0-0-0-|-0-0-0-0-0-0-0-7-|-7-7-7-7-7-7-7-7-|-7-7-7-7-7-7-7-7-|

|
| Q H. W W W
|-^12--^(12)-----------|-----------------|-----------------|-----------------|
|-^12--^(12)-----------|-----------------|-----------------|-----------------|
|-^13--^(13)-----------|-----------------|-----------------|-----------------|
|----------------------|-----------------|-----------------|-----------------|
|----------------------|-----------------|-----------------|-----------------|
|----------------------|-----------------|-----------------|-----------------|


Chorus
 Emaj7
    Gtr IV
 EEEEEEEE
||--17-17-17-17-17--17-17-17-|
||o--------------------------|
||--16-16-16-16-16--16-16-16-|
||---------------------------|
||o--------------------------|
||---------------------------|

|
| Gtr I
| E E E E +E E E E
||---0-----0--0-(0)-----0--0-|
||o--0-----0--0-(0)-----0--0-|
||---1--1--1--1-(1)--1--1--1-|
||---0--0--0--0-(0)--0--0--0-|
||o--2--2--2--2-(2)--2--2--2-|
||---0--0--0--0-(0)--0--0--0-|


 G#mF#6Emaj7
   E  E  E  E  E  E  E  S         
S 3x H H W
|-17-17-17-17-17-15-15-15S17--||-17----------------|------|
|----------------------------o||-------------------|------|
|-16-16-16-16-16-15-15-15S16--||-16----------------|------|
|-----------------------------||-------------------|------|
|----------------------------o||-------------------|------|
|-----------------------------||-------------------|------|

|
| E E E E E E E
3x Q E E E E E S S W
|--0-----0--0-----0--0--------||--0--0-0-----0-0-0-|-0----|
|--0-----0--0-----0--0-------o||--0--0-0-----0-0-0-|-0----|
|--4--4--4--4--3--3--3--3-----||--1--1-1-----1-1-1-|-1----|
|--4--4--4--4--4--4--4--4-----||--0--0-0-0-0-0-0-0-|-0----|
|--------------4--4--4--4----o||--2--2-2-2-2-2-2-2-|-2----|
|--4--4--4--4--2--2--2--2-----||--0--0-0-0-0-0-0-0-|-0----|


Main Riff
 B
  Gtr III
 EEEEEEE
  E E E  S
|-7-----7-7-7-7-7-7-7-|-7-7-7-7-7-7-7-7----|
|-0-----0-0-0-0-0-0-0-|-0-0-0-0-0-0-0-0----|
|-9b11==9-9-9-9-9-9-9-|-9r9-9-9-9-9-9-9s13-|
|---------------------|--------------------|
|---------------------|--------------------|
|---------------------|--------------------|

|
| Gtrs I, II
| E E E E E E E E E E E E E E E E
|-0-----0-0-0-0-0-0-0-|-0-0-0-0-0-0-0-0----|
|-0-----0-0-0-0-0-0-0-|-0-0-0-0-0-0-0-0----|
|-8-----8-8-8-8-8-8-8-|-8-8-8-8-8-8-8-8----|
|-0-----0-0-0-0-0-0-0-|-0-0-0-0-0-0-0-0----|
|-9-----9-9-9-9-9-9-9-|-9-9-9-9-9-9-9-9----|
|-7-----7-7-7-7-7-7-7-|-7-7-7-7-7-7-7-7----|


 EEEEEEEEEEEEEEEE
|-11-----11-11-11-11-11-11-11-|--------------------------|
|--0------0--0--0--0--0--0--0-|--0--0--0--0--0--0--0--0--|
|-13b15==13-13-13-13-13-13-13-|-13r13-13-13-13-13-13-13--|
|-----------------------------|--------------------------|
|-----------------------------|--------------------------|
|-----------------------------|--------------------------|

|
| E E E E E E E E E E E E E E E E
|--0------0--0--0--0--0--0--0-|--0--0--0--0--0--0--0--0--|
|--2------2--2--2--2--2--2--2-|--2--2--2--2--2--2--2--2--|
|--3------3--3--3--3--3--3--3-|--3--3--3--3--3--3--3--3--|
|--4------4--4--4--4--4--4--4-|--4--4--4--4--4--4--4--4--|
|--4------4--4--4--4--4--4--4-|--4--4--4--4--4--4--4--4--|
|--2------2--2--2--2--2--2--2-|--2--2--2--2--2--2--2--2--|


 EEEEEEE
  E E E E E E E S S
|-2----2-2-2-2-2-2-2-|-2-2-2-2-2-2-2-2---|
|-0----0-0-0-0-0-0-0-|-0-0-0-0-0-0-0-0---|
|-4b6==4-4-4-4-4-4-4-|-4r4-4-4-4-4-4-4s9-|
|--------------------|-------------------|
|--------------------|-------------------|
|--------------------|-------------------|

|
| E E E E E E E E E E E E E E E E
|-0----0-0-0-0-0-0-0-|-0-0-0-0-0-0-0-0---|
|-0----0-0-0-0-0-0-0-|-0-0-0-0-0-0-0-0---|
|-1----1-1-1-1-1-1-1-|-1-1-1-1-1-1-1-1---|
|-0----0-0-0-0-0-0-0-|-0-0-0-0-0-0-0-0---|
|-2----2-2-2-2-2-2-2-|-2-2-2-2-2-2-2-2---|
|-0----0-0-0-0-0-0-0-|-0-0-0-0-0-0-0-0---|


D.S.
 EEEEEEEEEEEEEEEE
|-7-----7-7-7-7-7-7-7-|-7-7-7-7-7-7-7-7--|
|-0-----0-0-0-0-0-0-0-|-0-0-0-0-0-0-0-0--|
|-9b11==9-9-9-9-9-9-9-|-9r9-9-9-9-9-9-9--|
|---------------------|------------------|
|---------------------|------------------|
|---------------------|------------------|

|
| E E E E E E E E E E E E E E E E
|-0-----0-0-0-0-0-0-0-|-0-0-0-0-0-0-0-0--|
|-0-----0-0-0-0-0-0-0-|-0-0-0-0-0-0-0-0--|
|-8-----8-8-8-8-8-8-8-|-8-8-8-8-8-8-8-8--|
|-0-----0-0-0-0-0-0-0-|-0-0-0-0-0-0-0-0--|
|-9-----9-9-9-9-9-9-9-|-9-9-9-9-9-9-9-9--|
|-7-----7-7-7-7-7-7-7-|-7-7-7-7-7-7-7-7--|


Middle
 BF#6
    E     E E E E E E E  E E E E E E E S  S     
 EEEEEEEE
||--7-----7-7-7-7-7-7-7-|-7-7-7-7-7-7-7-7----|-11-----11-11-11-11-11-11-11-|
||o-0-----0-0-0-0-0-0-0-|-0-0-0-0-0-0-0-0----|--0------0--0--0--0--0--0--0-|
||--9b11==9-9-9-9-9-9-9-|-9r9-9-9-9-9-9-9s13-|-13b15==13-13-13-13-13-13-13-|
||----------------------|--------------------|-----------------------------|
||o---------------------|--------------------|-----------------------------|
||----------------------|--------------------|-----------------------------|

|
| E E E E E E E E E E E E E E E E E E E E E E E E
||--0-----0-0-0-0-0-0-0-|-0-0-0-0-0-0-0-0----|--0------0--0--0--0--0--0--0-|
||o-0-----0-0-0-0-0-0-0-|-0-0-0-0-0-0-0-0----|--2------2--2--2--2--2--2--2-|
||--8-----8-8-8-8-8-8-8-|-8-8-8-8-8-8-8-8----|--3------3--3--3--3--3--3--3-|
||--0-----0-0-0-0-0-0-0-|-0-0-0-0-0-0-0-0----|--4------4--4--4--4--4--4--4-|
||o-9-----9-9-9-9-9-9-9-|-9-9-9-9-9-9-9-9----|--4------4--4--4--4--4--4--4-|
||--7-----7-7-7-7-7-7-7-|-7-7-7-7-7-7-7-7----|--2------2--2--2--2--2--2--2-|


 EEEEEEE
  E E E E E E E S S
|-------------------------|-2----2-2-2-2-2-2-2-|-2-2-2-2-2-2-2-2-----||
|--0--0--0--0--0--0--0--0-|-0----0-0-0-0-0-0-0-|-0-0-0-0-0-0-0-0----o||
|-13r13-13-13-13-13-13-13-|-4b6==4-4-4-4-4-4-4-|-4r4-4-4-4-4-4-4s9---||
|-------------------------|--------------------|---------------------||
|-------------------------|--------------------|--------------------o||
|-------------------------|--------------------|---------------------||

|
| E E E E E E E E E E E E E E E E E E E E E E E E
|--0--0--0--0--0--0--0--0-|-0----0-0-0-0-0-0-0-|-0-0-0-0-0-0-0-0-----||
|--2--2--2--2--2--2--2--2-|-0----0-0-0-0-0-0-0-|-0-0-0-0-0-0-0-0----o||
|--3--3--3--3--3--3--3--3-|-1----1-1-1-1-1-1-1-|-1-1-1-1-1-1-1-1-----||
|--4--4--4--4--4--4--4--4-|-0----0-0-0-0-0-0-0-|-0-0-0-0-0-0-0-0-----||
|--4--4--4--4--4--4--4--4-|-2----2-2-2-2-2-2-2-|-2-2-2-2-2-2-2-2----o||
|--2--2--2--2--2--2--2--2-|-0----0-0-0-0-0-0-0-|-0-0-0-0-0-0-0-0-----||


Outro
 BF#m11
  Gtr II                                     
>
H H W W
|-0------------------|--------------------|---------------------|
|-7------------------|--------------------|---------------------|
|-8------------------|--------------------|---------------------|
|-0------------------|--------------------|---------------------|
|-9------------------|--------------------|---------------------|
|-7------------------|--------------------|---------------------|

|
| Gtr I
| Q E E +E E E S S Q E
+E E E S S E E E E
E E S S
|-0--0-0-(0)---0-0-0-|-0--0-0-(0)---0-0-0-|-1---1-1-(1)---1-1-1-|
|-0--0-0-(0)---0-0-0-|-0--0-0-(0)---0-0-0-|-0---0-0-(0)---0-0-0-|
|-8--8-8-(8)---8-8-8-|-8--8-8-(8)---8-8-8-|-2-2-2-2-(2)-2-2-2-2-|
|-0--0-0-(0)-0-0-0---|-0--0-0-(0)-0-0-0---|-2-2-2-2-(2)-2-2-2---|
|-9--9-9-(9)-9-9-9---|-9--9-9-(9)-9-9-9---|---------------------|
|-7--7-7-(7)-7-7-7---|-7--7-7-(7)-7-7-7---|-2---2-2-(2)-2-2-2---|


 Emaj7
  Gtr I                 
Q E E +E E E S S W W
|----1-1-(1)---1-0-0-|-^0--------|------*|
|----0-0-(0)---0-0-0-|-^0--------|------*|
|----2-2-(2)-2-2-0-0-|-^1--------|------*|
|-2--2-2-(2)-2-2-0-0-|-^0--------|------*|
|--------------------|-^2--------|------*|
|-2--2-2-(2)-2-2-----|-^0--------|------*|


Duration Legend
---------------
W - whole; H - half; Q - quarter; E - 8th; S - 16th; T - 32nd; X - 64th; a - acciaccatura

+ - note tied to previous; . - note dotted; .. - note double dotted
Uncapitalized letters represent notes that are staccato (1/2 duration)
Irregular groupings are notated above the duration line
Duration letters will always appear directly above the note/fret number it represents the
duration for. Duration letters with no fret number below them represent rests. Multi-
bar rests are notated in the form Wxn, where n is the number of bars to rest for. Low
melody durations appear below the staff

Tablature Legend
----------------

h - hammer-on
p - pull-off
b - bend
pb - pre-bend
r - bend release (if no number after the r, then release immediately)
/\ - slide into or out of (from/to "nowhere")
s - legato slide
S - shift slide
- natural harmonic
 n
   - artificial harmonic
n(n) - tapped harmonic
~ - vibrato
tr - trill
T - tap
TP - trem. picking
PM - palm muting
\n/ - tremolo bar dip; n = amount to dip
\n - tremolo bar down
n/ - tremolo bar up
/n\ - tremolo bar inverted dip
= - hold bend; also acts as connecting device for hammers/pulls
<> - volume swell (louder/softer)
x - on rhythm slash represents muted slash
o - on rhythm slash represents single note slash

Misc Legend
-----------

| - bar
|| - double bar
||o - repeat start
o|| - repeat end
*| - double bar (ending)
: - bar (freetime)
$ - Segno
& - Coda
Tempo markers - = BPM(8/16=s8/s16), where s8 = swing 8ths, s16 = swing 16ths

6. Trouble
 GEmBm
 oh no i see

 FAmG
 a spider web is tangled up with me

 GEmBm
 and I lost my head

 FAmG
 and thought of all the stupid things id said

 GEmBm
 oh no whats this

 FAmG
 a spider web and im caught in the middle  

 GEmBm
 so I turned to run and

 FAmG
 thought of all the stupid things id done

 AEm
 and ah i never meant to cause you trouble

 AEm
 ah i never meant to do you wrong

 AEm
 ah well if I ever caused you trouble

 AEm
 then oh no I never meant to do you harm.

 GEmBm
 oh no i see

 FAmG
 a spider web and its me in the middle  

 GEmBm
 so i twist and turn

 FAmG
 but here am i in my little bubble  

 AEm
 singing out ah i never meant to cause you trouble

 AEm
 ah i never meant to do you wrong

 AEm
 and ah well if I ever caused you trouble

 AEm
 then oh no I never meant to do you harm.

 EmF#mGF#mEm
 and they spun a web for me

 EmF#mGF#mEm
 they spun a web for me

 EmF#mGF#mEm
 and they spun a web for me.

7. Parachutes
Intro & Verse: B Abm B Abm F#m E
=-=-=-=-=-=-=-


 BAbmBAbmF#m
E|-|-------------------|-------------------|------------------|-|
B|-|-------------------|-------------------|------------------|-|
G|-|----8--8----4--4---|----8--8----4--4---|---2---2---2---2--|-|
D|-|-----9--9----6--6--|-----9--9----6--6--|----4-------4-----|-|
A|-|------9-------6----|------9-------6----|-----4-------4----|-|
e|-|--7-------4--------|--7-------4--------|--2-------2-------|-|


 E
E|-|------------------|-|
B|-|------------------|-|
G|-|---1--1----1---1--|-|
D|-|----2--2----2-----|-|
A|-|-----2-------2----|-|
e|-|--0-------0-------|-|


=-=-=-
Verse:
=-=-=-

 BAbm
 Yeah my head is a stormy haze
 BAbmF#mE
   I'll be round; I'll be loving you always, always
 BAbm
 Here I am and I take my time
 BAbmF#mE
   Here I am and I'll wait in line always, always

Chords:

 BAbmF#mE
E|-|--7--|--4--|--2--|--0--|-|
B|-|--7--|--4--|--2--|--0--|-|
G|-|--8--|--4--|--2--|--1--|-|
D|-|--9--|--6--|--4--|--2--|-|
A|-|--9--|--6--|--4--|--2--|-|
e|-|--7--|--4--|--2--|--0--|-|


8. High Speed
GUITAR 1 (Rhythm) - DGDGBD (Open G)

GUITAR 2 (Lead) - EADGBE (Standard)

=========================================================================================

CHORDS: For rhythm guitar

 ------------------

Bb6/Eb = 133o1o |
Csus2/F = 355o3o | x = string not played
Gsus2 = xo77oo | o = open string
Ebmaj7 = x87o8o |
Ebmaj7* = x88o8o |
Ebmaj7** = x88o6o |
Bb6 = x33o3o |
Cadd9 = x55o5o |
 ------------------


INTRO: Chords for GUITAR 1 written above. The lead is played by GUITAR
2 in standard

 Csus2/F
 |------6-6-5-5-3-3-----8-8-6-6-5-5--|------6-6-5-5-3-3-----8-8-6-6-5-5--|
 |-----------------------------------|-----------------------------------|
 |--3-3-------------5-5--------------|--3-3-------------5-5--------------|
 |-----------------------------------|-----------------------------------|
 |-----------------------------------|-----------------------------------|
 |-----------------------------------|-----------------------------------|


 Csus2/F
 |------6-6-5-5-3-3-----8-8-6-6-5-5--|------6-6-5-5-3-3-----8-8-6-6-5-5--8---|
 |-----------------------------------|-----------------------------------8---|
 |--3-3-------------5-5--------------|--3-3-------------5-5--------------5---|
 |-----------------------------------|---------------------------------------|
 |-----------------------------------|---------------------------------------|
 |-----------------------------------|---------------------------------------|


 Gsus2
 |--------------------------------------------|
 |------6---63---31---1-----------------------|
 |----7---7-----4-----2---0-----------0-0-----|
 |-------------------------------0--2---------| x2
 |---------------------------0h2--------------|
 |--------------------------------------------|


VERSE 1:

 Ebmaj7Gsus2
 Can anybody fly this thing?

 Gsus2
 |-------------------------------------------|
 |------6---63---31---1----------------------|
 |----7---7-----4-----2---0-----------0-0----|
 |-------------------------------0--2--------|
 |---------------------------0h2-------------|
 |-------------------------------------------|


Ebamj7 Ebmaj7* Ebmaj7** Gsus2
Before my head explodes, Before my head starts to ring,

 Gsus2
 |-------------------------------------------|
 |------6---63---31---1----------------------|
 |----7---7-----4-----2---0-----------0-0----|
 |-------------------------------0--2--------|
 |---------------------------0h2-------------|
 |-------------------------------------------|


Ebmaj7* Ebmaj7** Gsus2
We've been living life, inside a bubble,

 Gsus2
 |-------------------------------------------|
 |------6---63---31---1----------------------|
 |----7---7-----4-----2---0-----------0-0----|
 |-------------------------------0--2--------|
 |---------------------------0h2-------------|
 |-------------------------------------------|


 Bb6Cadd9Gsus2
     We've been living life inside a bubble,  

 Gsus2
 |-----------------------------------------------|
 |------6---63---31---1--------12----12----------|
 |----7---7-----4-----2---0--/12----12----12-----|
 |-----------------------------------------------|
 |-----------------------------------------------|
 |-----------------------------------------------|


CHORUS:

 Bb6/EbCsus2/FBb6/Eb
   And confidence in you, is confidence in me,
 Csus2/FGadd9
 Is confidence in hi - igh speed

 Csus2/F
 |-----------------------------------------------|-----------------------------------------------|
 |----3----------3-----------5----------5--------|----3----------3-----------5----------5--------|
 |------0---0------0---0-------0---0------0---0--|------0---0------0---0-------0---0------0---0--|
 |--3-----3----3-----3-----5----------5-----5----|--3-----3----3-----3-----5----------5-----5----|
 |-----------------------------------------------|-----------------------------------------------|
 |-----------------------------------------------|-----------------------------------------------|


VERSE 2: Similar lead but with a few notes played over the Ebmaj7's, they
should be easy to work out

 Ebmaj7Gsus2
 Can anybody stop this thing?
Ebmaj7 Ebmaj7* Ebmaj7** Gsus2
Before my head explodes, before my head starts to ring,
Ebamj7* Ebmaj7** Gsus2
We've been living life inside a bubble,
 Bb6Cadd9Gsus2
 We've been living life inside a bubble, 

CHORUS 2: Again similar lead

 Bb6/EbCsus2/FBb6/Eb
   And confidence in you, is confidence in me,
 Csus2/FGadd9
 Is confidence in hi - igh speed, In high speed, high speed

In high speed, high speed

OUTRO: Play the intro riff over this

 Bb6/EbCsus2/F
 And high speed you want,

High speed you want,
 Cadd9
 High speed you want,
 Gsus2
 High speed you want,  

*Gsus2 held till fade*

9. We Never Change
Chords used:
 B
  0     0      0       0      0      0       0    2
0 2 3 5 5 3 2 4
 21444224
  4     2      4       2      2      0       0    4
4 2 2 0 4 x x 2
2* 0 x x x x x x

* fret note w/ left thumb

6/8 time (mostly)

| F#m11 | .. | E6 | .. | F#m11 | .. | E6 | .. |
I wanna live

| F#m11 | .. | E6 | .. | F#m11 | .. | E6 | .. | X2
life etc

| Bmadd11 | F#m11 |(9/8) .. |(6/8) E6 | .. |
I wanna fly...

| Asus2 | .. | C#m7 | .. |
We never change, do we?
We never learn, do we?

| Bmadd11 | F#m11 |(9/8) .. |(6/8) E6 | .. |
I wanna live in a wooden house
Making...

Outro
| Bmadd11 | F#m11 | E6 | Bmadd11 |
I wanna live in a wooden house where
| Bmadd11 | F#m11 |Dsus2 / Dmaj9 | B |
making more friends would be ea_____________sy__
| Bmadd11 | F#m11 | E6 | Bmadd11 |
I wanna live where the sun comes down

Often, playing an F#m11, this appears:
E-|(0)-(0)-|
B-|(0)-(0)-|
G-|-2--(2)-|
D-|-4--(4)-|
A-|-4--(4)-|
E-|-0-h-2--|


10. Everythings not lost
Tab notes:
-Rhythm guitar arranged for a piano part.
-Lead guitar measures in parentheses
-Rhythm and lead guitar measures separated by one space
-Lead guitar uses slide
-Some notes on 6th string played with thumb
-Let these notes ring when you play them

VERSE 1

When I counted....demons

e|--0------------------------------------------------|
B|--0-----------0-----------3------------------------|
G|--1-----------1-----------3------------------------|
D|--2-----------3-----------2------------(Repeat 3x)-|
A|---------------------------------------------------|
E|--0-----------1-----------2------------------------|


Drove the other ones away

e|--0-----------------------0------------------------|
B|--2-----------------------0---------------------0--|
G|--2-----------------------1-------------------1----|
D|--------------------------2-----------------2------|
A|--2-----------------------2------------------------|
E|---------------------------------------------------|


So if you ever.....neglected

e|--0-----------0-----------0-----------------0------\-|
B|--0-----------0-----------0-----------3-------3------| \
G|--1-----------1-----------1-----------3---------3-0--|  \
D|--2-----------1-----------0-----------2--------------|   \
A|--2--------------------------------------------------|
E|--------------------------------------2--------------|  Rhythm and lead

played together
(e|---------------------------------------------------|
(B|-5-------------------------------------------------|
(G|---------------------------------------------------|   /
(D|---------------------------------------------------|  /
(A|---------------------------------------------------| /
(E|---------------------------------------------------|/


If you think all...lost

e|--0-----------0-----------0-----------0---------0--|
B|--0-----------0-----------0-----------0------2--0--|
G|--1-----------1-----------1-----------2------2--4--|
D|----2---------1-----------0----------------2-------|
A|--------------------------------------4--4---------|
E|---------------------------------------------------|
(e|--------------------------------------------------)
(B|-5------------------------7////8-----5------------)
(G|--------------------------------------------------)
(D|--------------------------(slow slide/bend)-------)
(A|--------------------------------------------------)
(E|--------------------------------------------------)


I'll be counting..

e|--0-----------0-----------0-----------0------------|
B|--0-----------0-----------0-----------0------------|
G|--1-----------1-----------1-----------2------------|
D|--2-----------1-----------0------------------------|
A|--------------------------------------4------------|
E|---------------------------------------------------|
(e|--------------------------------------------------)
(B|-------9-----------9-----------12----14-----------)
(G|-9--9-----9--11-11----11-13-13----13-14-----------)
(D|--------------------------------------------------)
(A|--------------------------------------------------)
(E|--------------------------------------------------)


hoping everything..

e|--------------------0-----0-------------------------|
B|--------------------2-----0-------------------------|
G|--2-----------------2-----1-------------------------|
D|--2-----------------------2-------------------------|
A|--4-----------------2-------------------------------|
E|--------------------------0-------------------------|
(e|-------------------------12-12-12-12-12-12--------)
(B|-------------------------------------------9-11---)
(G|-6------------------------------------------------)
(D|--------------------------------------------------)
(A|--------------------------------------------------)
(E|--------------------------------------------------)


INSTRUMENTAL VERSE (Repeat 4x)

e|--0-----0-----0-----------0-----0-----0-------------|
B|--0-----0-----0-----------3-----3-----2-------------|
G|--1-----1-----1-----------4-----4-----2-------------|
D|--2-----2-----0-----------0-----0-----0-------------|
A|--2-----------2-------------------------------------|
E|--0-----------0-----------3-----------2-------------|
(e|-12-12-12-12-12-12-------12-12-12-12-12-12-[16,17]) [2nd time around]
(B|-------------------9-11--------------------9-11---)
(G|--------------------------------------------------)
(D|--------------------------------------------------)
(A|--------------------------------------------------)
(E|--------------------------------------------------)


VERSE 2

When you thought

e|-------------------------------------------0-------|
B|--0-----------0-----------3------------------3-----|
G|--1-----------1-----------3--------------------3---|
D|--2-----------3-----------2----------------------0-|
A|--2------------------------------------------------|
E|--0-----------1-----------2------------------------|
e|--0----------------------------------------0--------|  \
B|--0-----------0-----------3------------------3------|   \
G|--1-----------1-----------3--------------------3----|    \
D|----2---------3-----------2----------------------0--|
A|----------------------------------------------------|
E|--0-----------1-----------2-------------------------|

Play 2x
(e|-------------11----------12-----------------------)  omit 0-3-3-3-|
(B|-9----------------------------------------------------------------|  riff 2nd time
(G|------------------------------------------------------------------|
(D|------------------------------------------------------------------|   /
(A|------------------------------------------------------------------|  /
(E|------------------------------------------------------------------| /


don't you let it drag you down

e|--0-----------------------0------------------------|
B|--2-----------------------0---------------------0--|
G|--2-----------------------1-------------------1----|
D|--------------------------2-----------------2------|
A|--2------------------------------------------------|
E|--------------------------0------------------------|


if you ever feel..

e|--0-----------0-----------0-----------------0-------|
B|--0-----------0-----------0-----------3-------3-----|
G|--1-----------1-----------1-----------3---------3-0-|
D|--2-----------1-----------0-----------2-------------|
A|--2-------------------------------------------------|
E|--------------------------------------2-------------|
(e|--------------------------------------------------)
(B|-5------------------------------------------------)
(G|--------------------------------------------------)
(D|--------------------------------------------------)
(A|--------------------------------------------------)
(E|--------------------------------------------------)


if you think

e|--0-----------0-----------0-----------0---------0--|
B|--0-----------0-----------0-----------0------2--0--|
G|--1-----------1-----------1-----------2------2--4--|
D|----2---------1-----------0----------------2-------|
A|--------------------------------------4--4---------|
E|---------------------------------------------------|
(e|--------------------------------------------------)
(B|-5-----------------------7////8------5------------)
(G|--------------------------------------------------)
(D|--------------------------------------------------)
(A|--------------------------------------------------)
(E|--------------------------------------------------)


i'll be counting up...

e|--0-----------0-----------0-----------0------------|
B|--0-----------0-----------0-----------0------------|
G|--1-----------1-----------1-----------2------------|
D|--2-----------1-----------0------------------------|
A|--------------------------------------4------------|
E|---------------------------------------------------|
(e|--------------------------------------------------)
(B|-------9-----------9-----------12----14-----------)
(G|-9--9-----9--11-11----11-13-13----13-14-----------)
(D|--------------------------------------------------)
(A|--------------------------------------------------)
(E|--------------------------------------------------)


hoping everthing's not lost

e|--------------------0-----0-------------------------|
B|--------------------2-----0-------------------------|
G|--2-----------------2-----1-------------------------|
D|--2-----------------------2-------------------------|
A|--4-----------------2-------------------------------|
E|--------------------------0-------------------------|
(e|-------------------------12-12-12-12-12-12--------)
(B|-------------------------------------------9-11---)
(G|-6------------------------------------------------)
(D|--------------------------------------------------)
(A|--------------------------------------------------)
(E|--------------------------------------------------)


INSTRUMENTAL VERSE (Repeat 4x)

e|--0-----0-----0-----------0-----0-----0-------------|
B|--0-----0-----0-----------3-----3-----2-------------|
G|--1-----1-----1-----------4-----4-----2-------------|
D|--2-----2-----0-----------0-----0-----0-------------|
A|--2-----------2-------------------------------------|
E|--0-----------0-----------3-----------2-------------|
(e|-12-12-12-12-12-12-------12-12-12-12-12-12-[16,17]) [2nd time around]
(B|-------------------9-11--------------------9-11---)
(G|--------------------------------------------------)
(D|--------------------------------------------------)
(A|--------------------------------------------------)
(E|--------------------------------------------------)


BRIDGE

If you ever feel..
if you think that..

e|--0-------------------------------------------------|
B|--0-------------------------------------------------|
G|--1-------------------------------------------------|
D|--2-----------1-----------0-----------(Repeat 2x)---|
A|----------------------------------------------------|
E|--0-----------0-----------0-------------------------|


i'll be counting up...

e|--0-----------------------------------0-------------|
B|--0-----------------------------------0-------------|
G|--1-----------------------------------2-------------|
D|--2-----------1-----------0-------------------------|
A|--------------------------------------4-------------|
E|--0-----------0-----------0-------------------------|
(e|--------------------------------------------------)
(B|-------9-----------9-----------12----14-----------)
(G|-9--9-----9--11-11----11-13-13----13-14-----------)
(D|--------------------------------------------------)
(A|--------------------------------------------------)
(E|--------------------------------------------------)


hopin everything's not lost

e|--------------------0-----0-------------------------|
B|--------------------2-----0-------------------------|
G|--2-----------------2-----1-------------------------|
D|--2-----------------------2-------------------------|
A|--4-----------------2-------------------------------|
E|--------------------------0-------------------------|
(e|--------------------------------------------------)
(B|--------------------------------------------------)
(G|-6------------------------------------------------)
(D|--------------------------------------------------)
(A|--------------------------------------------------)
(E|--------------------------------------------------)


OUTRO

Singin'out oh yea.....

e|--4-----4-----4-----4-----4-----4-----5-----5-------|
B|--0-----0-----0-----0-----0-----0-----0-----0-------|
G|--1-----1-----1-----1-----1-----1-----2-----2-------|
D|--2-----2-----2-----2-----0-----0-------------------|
A|--------------------------------------4-----4-------|
E|----------------------------------------------------|


Repeat 4 times

e|--0-----0-----0-----------0-----0-----0-------------|
B|--0-----0-----0-----------3-----3-----2-------------|
G|--1-----1-----1-----------4-----4-----2-------------|
D|--2-----2-----0-----------0-----0-----0-------------|
A|--2-----------2-------------------------------------|
E|--0-----------0-----------3-----------2-------------|
(e|-12-12-12-12-12-12-------12-12-12-12-12-12-[16,17]) [2nd time around]
(B|-------------------9-11--------------------9-11---)
(G|--------------------------------------------------)
(D|--------------------------------------------------)
(A|--------------------------------------------------)
(E|--------------------------------------------------)


Repeat 4 times

e|--0-----0-----0-----0-----2-----2-----2-----2-------|
B|--0-----0-----0-----0-----3-----3-----3-----3-------|
G|--1-----1-----1-----1-----2-----2-----2-----2-------|
D|--2-----2-----2-----2-----4-----4-----4-----4-------|
A|--2-----2-----2-----2-----2-----2-----2-----2-------|
E|--0-----0-----0-----0-------------------------------|
(e|--------------------------------------------------)
(B|-0--0--0--0--0--0--0--0--2--2--2--2--2--2--2------)
(G|--------------------------------------------------)
(D|--------------------------------------------------)
(A|--------------------------------------------------)
(E|--------------------------------------------------)
e|--4-----4-----4-----4-----4-----4-----4-----4-------|
B|--2-----2-----2-----2-----2-----2-----2-----2-------|
G|--2-----2-----2-----2-----2-----2-----2-----2-------|
D|----------------------------------------------------|
A|----------------------------------------------------|
E|--2-----2-----2-----2-----2-----2-----2-----2-------|
(e|--------------------------------------------------)
(B|-5--5--5--5--5--5--5--5--5--5--5--5--5--7--7--7---)
(G|--------------------------------------------------)
(D|--------------------------------------------------)
(A|--------------------------------------------------)
(E|--------------------------------------------------)
e|--0-----0-----0-----0-----2-----2-----2-----2-------|
B|--0-----0-----0-----0-----3-----3-----3-----3-------|
G|--1-----1-----1-----1-----2-----2-----2-----2-------|
D|--2-----2-----2-----2-----4-----4-----4-----4-------|
A|--2-----2-----2-----2-----2-----2-----2-----2-------|
E|--0-----0-----0-----0-------------------------------|
(e|--------------------------------------------------)
(B|-5--5--5--5--5--5--5--5--7--7--7--7--7--7--7------)
(G|--------------------------------------------------)
(D|--------------------------------------------------)
(A|--------------------------------------------------)
(E|--------------------------------------------------)
e|--4-----4-----4-----4-----4-----4-----4-----4-------|
B|--2-----2-----2-----2-----2-----2-----2-----2-------|
G|--2-----2-----2-----2-----2-----2-----2-----2-------|
D|----------------------------------------------------|
A|----------------------------------------------------|
E|--2-----2-----2-----2-----2-----2-----2-----2-------|
(e|--------------------------------------------------)
(B|-9--9--9--9--9--9--9--9--9--9--9--9--9--10-10-10--)
(G|--------------------------------------------------)
(D|--------------------------------------------------)
(A|--------------------------------------------------)
(E|--------------------------------------------------)
e|--0-----------------------2-------------------------|
B|--0-----------------------3-------------------------|
G|--1-----------------------2-------------------------|
D|--2-----------------------4-------------------------|
A|--------------------------2-------------------------|
E|--0-------------------------------------------------|
e|---4------------------------------------------------|
B|---2------------------------------------------------|
G|---2------------------------------------------------|
D|----------------------------------------------------|
A|----------------------------------------------------|
E|---2------------------------------------------------|
e|---0------------------------------------------------|
B|---0------------------------------------------------|
G|---1------------------------------------------------|
D|---2------------------------------------------------|
A|----------------------------------------------------|
E|---0------------------------------------------------|


11. Life is for living
TUNING - STANDARD with capo on fret 1

A = x02220 |
F#m7 = 242222 |
E6sus4 = 022220 |
E = 022100 |
D = xx0232 |
Bm7 = x24232 |
Asus4 = x02230 |
E7 = 022130 |
D5 = xx023x |
Dmaj9 = xx0220 |
 ----------------

VERSE 1:

 AAsus4A
 |---------------------------|----------------------------|
 |----2------2------2----0---|----3------3------2--3--2---|
 |----2------2------2----1---|----2------2------2--2--2---|
 |---------------------------|--0-------------------------| x4
 |--0------------------------|------4--2---2--0-------0---|
 |------4--2---2--0----0-----|----------------------------|


Now I never meant to do you wrong,
Thats what I came here to say,
But if I was wrong then I'm sorry,
But don't let it stand in our way,
'Cause my head just aches when I think of,
The things that I shouldn't have done,
But life is for living we all no,
And I don't want to live it alone.

BREAK:

 EE7
 Sing ah ah ah,
 D5Dmaj9
 Sing ah ah ah,
 EE7
 And you sing ah ah ah,

OUTRO:

 AAsus4A
 |---------------------------|----------------------------|
 |----2------2------2----0---|----3------3------2--3--2---|
 |----2------2------2----1---|----2------2------2--2--2---|
 |---------------------------|--0-------------------------| x2
 |--0------------------------|------4--2---2--0-------0---|
 |------4--2---2--0----0-----|----------------------------|