Chordie logo

Warning Sign   Coldplay



WARNING SIGN: 100 % CORRECT TAB

I saw chris playing the song like this at glastonbury :

¡¡¡¡ CAPO 2 FRET !!!!!!! (chords are relative to capo)


Intro

e|---0----0----0----0-----0----------|
B|---1----1----1----1-----1----------|
G|---0----0----0----0-----0----------|
D|---2----0h2--2----0h2---2----------|
A|---3----3----3----3-----3----------|
E|---3----3----3----3-----3----------|

Verse

e|---0----0----0-----0-----------|
B|---6----1----8-----3-----------|
G|---0----0----0-----0-----------|
D|---7----2----9-----4-----------|
A|---8----3----10----5-----------|
E|---8----3----10----5-----------|

Chorus


e|---0----0-----0----0------------------------|
B|---1----0h1---8----3------------------------|
G|---0----0-----0----0------------------------|
D|---2----2-----9----4------------------------|
A|---3----2-----10---5------------------------|
E|---3----0-----10---5------------------------|


Outro


e|---0------0----0------0-----------------------------------------|
B|---8------6----6b7----1(optional)-------------------------------|
G|---0------0----0------0-----------------------------------------|
D|---9------7----7------2-----------------------------------------|
A|---10-----8----8------2-----------------------------------------|


Important: The song above is NOT stored on the Chordie server. The original song is hosted at www.guitaretab.com. Chordie works as a search engine and provides on-the-fly formatting. Chordie does not index songs against artists/composers will. To remove this song please click here.

This song is displayed as text-only. Transposing and tuning is only available for chordpro-songs.

Login - add to songbook

Rating click stars to rate

Layout
Accuracy

SHARE PAGE  

You need to log in to post comments