eToCache5 = ""; ?> Easy To Please by Coldplay - guitar chords, guitar tabs and lyrics - chordie

Easy To Please

Coldplay

------------------------------------------------------------------------------

------------------------------------------------------------------------------
e|-4----9-----2-----0-----2-----0-----9-----0-----0-----0-----0---|
B|-5----9-----4-----0-----2-----0-----9-----4-----2-----2-----0---|
G|-6----9-----4-----2-----2-----1-----9-----2-----2-----1-----2---|
D|-6----11----4-----4-----4-----2-----9-----2-----2-----2-----2---|
A|-4----11----2-----4-----4-----2-----7-----0-----0-----0-----0---|
E|-X----9-----2-----0-----2-----0-----X-----0-----0-----0-----0---|

 F#m(11E
I hope we can find a way of seeing it all.
 C#mB
Love; I hope we can be,
 F#m(11E6EE6
I hope I can find a way of letting you see     

 AAsus4Amaj7F#m
That I'm so e--asy to please,
 BABAAsus2BAAsus2BAAsus2A
so e--asy.                                              

 C#mB
 Love; I hope we grow old,
 F#m(11E
I hope we can find a way of seeing it all.
 C#mB
Love; I hope we can be
 C#mE6EE6
I hope I can find a way of letting you see     

 AAsus4Amaj7F#m
That I'm so e--asy to please,
 BABAAsus2BAAsus2BAAsus2A
so e--asy.                                              

-NOTES-

-Chords-
The chords might look tricky but they're not too bad with a bit of practice.
Feel free to simplify them, I tried to make them accurate and not relative to
a capo or anything so people on other instruments can use them.

I know the F#m(11) and Asus4 chords arent named correctly, those are the closest
looking chords I could find. if you know the proper names please make a correction.

The C#m* is a variation of the C#m, and not vital, you can treat it as an E6
and just hit the top strings to get the right effect, or completely ignore it.

You may also wish to play variations of the B and E chords, as I think that
might be the case in the song.

-Strumming-
I haven't a clue, Im very bad at it. So you'll have to figure it out im afriad.

Take note that sometimes the low strings are hit first before the rest of the chord is struck.

At the end of the chorus, slide the B down to A and hammer from the Asus2 back to the A.

-The piano bit-
You can pick this out of the chords and it sounds quite good, as follows-

 C#mB
e|-------4-------------------4---------------2-4----------------2-4----------|
B|-----7---------4-5-------7--------4-5----------------4-5---------------4-5-|
G|---------------------------------------------------------------------------|
D|---6---------6---------6--------6--------4--------4---------4--------4-----|
A|-4---------4---------4--------4--------2--------2---------2--------2-------|
E|---------------------------------------------------------------------------|


I'm sure you can figure the rest out for yourself. Just play with the chords
and change finger positions to make it sound right as you can see I've had to
do above.

-Chorus-
Im pretty sure I've got this wrong, the F#m fits but I think it should actually be
a funny variation of the A chord. Please let me know what it is if you find it! The
Asus4 and Amaj7 I'm not really 100% about either...

Happy playing,
Peace on Earth


A Amaj7 Asus2 Asus4 B C#m E E6 F#m
variations - click chord images
Transpose chords:
Tuning:
Cool service:
View: Size:
A  A  A
Rating:
Layout:
  • Currently 3.3/5 Stars.
  • 1
  • 2
  • 3
  • 4
  • 5
 
Accuracy:
  • Currently 3/5 Stars.
  • 1
  • 2
  • 3
  • 4
  • 5
 
click stars to rate
Chordie recommends:
Get acoustic guitar lessons and electric guitar lessons at JamPlay.com
Songbook:
Login to add this song to your songbook
Support the artist
Preview/buy this song
MSN Music
Why this non-profit ad?

 
login to add comments/video/corrections