""; ?> Fix You by Coldplay - guitar chords, guitar tabs and lyrics - chordie

Fix You

Coldplay

 EG#mb6C#m7Badd11
  e|0---0---0---0-0--0---0---0---0-0-|0---0---0---0-0--0---0---0---0-0-|
  B|0---0---0---0-0--0---0---0---0-0-|0---0---0---0-0--0---0---0---0-0-|
  G|1---1---1---1-1--4---4---4---4-4-|9---9---9---9-9--8---8---8---8-8-|
  D|2-------2--------6-------6-------|11------11-------9-------9---9-9-|
  A|2-------2--------6-------6-------|11------11-------9-------9-------|
  E|0-------0--------4-------4-------|9-------9--------7-------7-------|

High up above and down below You're

 EG#mb6C#m7Badd11
e|0---0---0---0-0--0---0---0---0-0-|0---0---0---0--0--0---0---0---0-0-|
B|0---0---0---0-0--0---0---0---0-0-|0---0---0---0--0--0---0---0---0-0-|
G|1---1---1---1-1--4---4---4---4-4-|9---9---9---9--9--8---8---8---8-8-|
D|2-------2--------6-------6-------|11------11--11-11-9-------9---9-9-|
A|2-------2--------6-------6-------|11------11--------9-------9-------|
E|0-------0--------4-------4-------|9-------9---------7-------7-------|

Too in love to let it go but if you

 EG#mb6C#m7Badd11
e|0---0---0---0-0--0---0---0---0-0-|0---0---0---0--0--0---0---0---0-0-|
B|0---0---0---0-0--0---0---0---0-0-|0---0---0---0--0--0---0---0---0-0-|
G|1---1---1---1-1--4---4---4---4-4-|9---9---9---9--9--8---8---8---8-8-|
D|2-------2--------6-------6-------|11------11--11-11-9-------9---9-9-|
A|2-------2--------6-------6-------|11------11--------9-------9-------|
E|0-------0--------4-------4-------|9-------9---------7-------7-------|

Never try, you'll never know just what you're

 EG#mb6C#m7Badd11
e|0---0---0---0-0--0---0---0---0-0-|0---0---0---0--0--0---0---0---0-0-|
B|0---0---0---0-0--0---0---0---0-0-|0---0---0---0--0--0---0---0---0-0-|
G|1---1---1---1-1--4---4---4---4-4-|9---9---9---9--9--8---8---8---8-8-|
D|2-------2--------6-------6-------|11------11--11-11-9-------9---9-9-|
A|2-------2--------6-------6-------|11------11--------9-------9-------|
E|0-------0--------4-------4-------|9-------9---------7-------7-------|

Worth

Pre-Chorus (Guitar 1)
 Aadd9G#mb6Bsus4Badd11
e|0~-----0---0-0--0---0-0--0---0-0-|0-----0--0-0-0-----0---0-0--|
B|0~-----0---0-0--0---0-0--0---0-0-|0-----0--0-0-0-----0---0-0--|
G|6~-----6---6-6--6---6-6--4---4-4-|9-----9--9-9-8-----8---8-8--|
D|7~-----7--------7--------6-------|9-----9------9-----9--------|
A|7~-----7--------7--------6-------|9--9--9------9--9--9--------|
E|5~-----5--------5--------4-------|7--7--7------7--7--7--------|

Lights will guide you home

 Aadd9G#mb6Bsus4Badd11
e|0-----0---0-0--0---0-0--0---0-0-|0-----0--0-0-0-----0--0-0--|
B|0-----0---0-0--0---0-0--0---0-0-|0-----0--0-0-0-----0--0-0--|
G|6-----6---6-6--6---6-6--4---4-4-|9-----9--9-9-8-----8--8-8--|
D|7-----7--------7--------6-------|9-----9------9-----9-------|
A|7--7--7--------7--------6-------|9--9--9------9--9--9-------|
E|5--5--5--------5--------4-------|7--7--7------7--7--7-------|

And ig- nite your bones

 Aadd9G#mb6Bsus4Badd11
e|0-----0---0-0--0---0-0--0---0-0-|0-----0--0-0-0~------------|
B|0-----0---0-0--0---0-0--0---0-0-|0-----0--0-0-0~------------|
G|6-----6---6-6--6---6-6--4---4-4-|9-----9--9-9-8~------------|
D|7-----7--------7--------6-------|9-----9------9~------------|
A|7--7--7--------7--------6-------|9--9--9------9~------------|
E|5--5--5--------5--------4-------|7--7--7------7~------------|

And I will try to Fix You.

Final Chorus – Guitar 2 (Electric w/slight distortion)
e|-0--0--0--0--0--0--0--0--0--0--0--0--0--0--0--0--|
B|-5--5--5--5--5--5--5--5--5--5--5--5-/12-12-12-12-|
G|-------------------------------------------------| 3x
D|-------------------------------------------------|
A|-------------------------------------------------|
E|-------------------------------------------------|
e|-0--0--0--0--0--0--0--0--0--0--0--0--0--0--0--0--|
B|-5--5--5--4--4--4--4--4--4--4--4--4--4--4--4--4--|
G|-------------------------------------------------| 1x
D|-------------------------------------------------|
A|-------------------------------------------------|
E|-------------------------------------------------|


As noted, the first stanza is played three times and then the second one is
played once. And then repeat that whole thing 3 times and that covers the
rest of the song as far as guitar parts go (As you know, everything drops
out except Chris Martin and his keyboard for the last refrain).

| / slide up
| \ slide down
| h hammer-on
| p pull-off
| ~ vibrato
| + harmonic
| x Mute note


Aadd9 Badd11 Bsus4 C#m7 E G#mb6
variations - click chord images
Transpose chords:
Tuning:
Cool service:
View: Size:
A  A  A
Rating:
Layout:
  • Currently 2.4/5 Stars.
  • 1
  • 2
  • 3
  • 4
  • 5
 
Accuracy:
  • Currently 2.8/5 Stars.
  • 1
  • 2
  • 3
  • 4
  • 5
 
click stars to rate
Chordie recommends:
Check out these online guitar lessons
Songbook:
Login to add this song to your songbook
Support the artist
Preview/buy this song
MSN Music
Why this non-profit ad?

 
login to add comments/video/corrections