Chordie logo

How Do You Love   Collective Soul



Artist: Collective Soul
Song: How Do You Love
Tuning: Standard
Tabbed By: Zuka (zuka4077@hotmail.com)

Note: This is tabbed from Collective Soul's performance
with the Atlanta Symphony Youth Orchestra, found on
the DVD/CD entitled "Home". This tab is right on,
so listen to the song and you will get it. Also, timing is
very, very important when playing Joel's (Guitar 3) part.
If it is not played at the proper time, it may sound wrong.

Guitar 1: Ed Roland (Clean)
Guitar 2: Dean Roland (Distortion)
Guitar 3: Joel Kosche (Distortion)

Intro:

Guitar 1(Althought he does have a "chord formation", he
         only plays the bottom 2/3 strings)
e|-----------------|
B|-----------------|
G|-----------------|
D|-2-X8-5-X8-2-X16-|
A|-3----3----0-----|
E|-----------------|

Verse:

Guitar 1:
e|-----------------|
B|-----------------|
G|-----------------| 
D|-2-X8-5-X8-2-X16-|
A|-3----3----0-----|
E|-----------------|
(There once was love...)

e|----------------|
B|----------------|
G|----------------|
D|-2-X8-5-X8-2-X8-|
A|-3----3----0----|
E|----------------|
(A calender of days just for you...)

Pre-Chorus:

Guitar 1:
e|------------|
B|------------|
G|------------|
D|----2-X32---|
A|----2-------|
E|------------|
(And the truth that you hide...)

Chorus:

Guitar 1:
e|-------------------------|
B|-------------------------|
G|-------------------------|
D|-2-X16-2-X16-2-X16-2-X16-|
A|-3-----0-----2-----3-----|
E|-------------------------|
(So how do you love? How do you...)

Guitar 2:
e|------------------------------------|
B|------------------------------------|
G|------------------------------------|
D|-9+------XX6+-----XX2+-----XX2+-----|
A|-9+------XX6+-----XX2+-----XX2+-----|
E|-7+------XX4+-----XX0+-----XX0+-----|

Guitar 3(Come in after G2 does last Power Chord):
e|---------------------12--------|
B|------11-9-8---11-9----11-9-11-|
G|-------------------------------|
D|-------------------------------|
A|-------------------------------|
E|-------------------------------|

Post-Chorus:

Guitar 1:
e|-----------------|
B|-----------------|
G|-----------------|
D|-2-X8-5-X8-2-X16-|
A|-3----3----0-----|
E|-----------------|

Guitar 2(Will end before G3 does)
e|---------------|
B|---------------|
G|---------------|
D|-9+---8+---6+--|
A|-9+---8+---6+--|
E|-7+---6+---4+--|

Guitar 3:
e|-------12-----------------12---------|
B|-9-11-----9-11-9----9-11-----9-11-9--|
G|-------------------------------------| X2
D|-------------------------------------|
A|-------------------------------------|
E|-------------------------------------|

Verse:
(Ed strums verse chords)
(Dean is on the keyboard)
Guitar 3:
e|-------12-----------------12---------|
B|-9-11-----9-11-9----9-11-----9-11-9--|
G|-------------------------------------| X4
D|-------------------------------------|
A|-------------------------------------|
E|-------------------------------------|
(There once were eyes, that only saw you...)

Pre-Chorus:
(Ed strums Pre-Chorus chords)
(Dean is still on the keyboard)
Guitar 3:
e|-------------------------------------------->
B|---------12--------------------------12----->
G|-9-11-12---11--9-11-12-11-9--9-11-12----11-->(continued)
D|-------------------------------------------->
A|-------------------------------------------->
E|-------------------------------------------->
  (And the truth that you hear...)
-----------------------|
------------12---------|
-9-11-12-11----11-9-11-|
-----------------------|
-----------------------|
-----------------------|

Chorus:
(Same parts as last chorus)

Interlude:

Guitar 1:
e|-----------------|
B|-----------------|
G|-----------------|
D|-3-X8-2-X8-2-X16-|
A|-3----2----3-----|
E|-----------------|

(This space where you've been living...)

Guitar 2:
e|--------------------------------|
B|--------------------------------|
G|--------------------------------|
D|-8+--9+--6+----8-9--8+--9+--6+--|
A|-8+--9+--6+----8-7--6+--9+--6+--|
E|-6+--7+--4+----6-7--6+--7+--4+--|

Guitar 3(Come in after "Thats the face you always show")
        (End at "condition")
e|------------------------------------------|
B|------------------------------------------|
G|-11-11--10-10--/10-8--11-11--10-10--/10-8-|
D|------------------------------------------|
A|------------------------------------------|
E|------------------------------------------|

Solo:
e|----------------------------------------->
B|----------------------------------------->(continued)
G|-/11-8-6-8~--/11-13\8~--6-8-9-8--6--4-4-->
D|----------------------------------------->
A|----------------------------------------->
E|----------------------------------------->

-------------------------------------------------------------|
----------------------------------10~-10~--------------------|
-/4--5-4-2-----/4--5-4-2-----/9-9----9----9~-/6-8-9-8~--6-6+-|
-----------5~------------5~----------------------------------|
-------------------------------------------------------------|
-------------------------------------------------------------|

End of Verse:
(Ed strums chords)
(Dean on keyboard)
(Joel does not play)

Chorus:

Guitar 1- Chords 
Guitar 2- Nothing until "And the truth...", then play chorus.
Guitar 3- Nothing until "And the truth...", then play chorus.

Outro:

Guitar 1- Verse Chords
Guitar 2- (Dean is on keyboard or strumming with Ed)
Guitar 3:
e|-----------------------|
B|-----------------------|
G|-/11-8-6-8--11--13~-11-| X3
D|-----------------------|
A|-----------------------|
E|-----------------------|

e|-------------|
B|-------------|
G|-6-8-10-6~---|
D|-------------|(Until end)
A|-------------|
E|-------------|
(How do you love?)

Legend: / = slide up to         + = Let ring    
        \ = slide down to       b = bend string
        r = release bend        * = palm mute
        h = hammer on           p = pull off
        X = scratch             ~ = vibrato

Road map:
-Intro
-Verse 
-Pre-chorus
-Chorus
-Post-chorus
-Verse
-Pre-Chorus
-Chorus
-Interlude
-Solo
-Chorus (1st Half clean, 2nd Half distortion)
-Outro



Important: The song above is NOT stored on the Chordie server. The original song is hosted at www.guitaretab.com. Chordie works as a search engine and provides on-the-fly formatting. Chordie does not index songs against artists/composers will. To remove this song please click here.

This song is displayed as text-only. Transposing and tuning is only available for chordpro-songs.

Login - add to songbook

Rating click stars to rate

Layout
Accuracy

SHARE PAGE  

You need to log in to post comments