Chordie logo

Freak   Collin Lamkey










Author/Artist: collin lamkey
Title: freak
Album: zoom
Transcribed by: collin lamkey
Email: sept2005@home.com

song order

-|---------------|------------------------------------------------------------|
-|---------------|------------------------------------------------------------|
-|--2------------|------------------------------------------------------------|
-|--2--2--4-3-4--|------------------------------------------------------------|
-|--0--2--4-3-4--|------------------------------------------------------------|
-|--x--0--2-1-2--|------------------------------------------------------------|
     intro/outro strum each chord like 4 times           riff 1

-|-----------|----------------------------------------------------------------|
-|-----------|----------------------------------------------------------------|
-|----7----5-|----------------------------------------------------------------|
-|--9-7-7--5-|----------------------------------------------------------------|
-|--9-5-7--3-|----------------------------------------------------------------|
-|--7-x-5--x-|----------------------------------------------------------------|


Important: The song above is NOT stored on the Chordie server. The original song is hosted at www.guitaretab.com. Chordie works as a search engine and provides on-the-fly formatting. Chordie does not index songs against artists/composers will. To remove this song please click here.

This song is displayed as text-only. Transposing and tuning is only available for chordpro-songs.

Login - add to songbook

Rating click stars to rate

Layout
Accuracy

SHARE PAGE  

You need to log in to post comments