Guitar Tabs, Chords and Lyrics


Defeated   Comeback Kid



Hey Um... I barely know any one who knows this song but i'll still post it any way.

intro x2
e-----------------------------------------------|
B-----------------------------------------------|
G----4---x8-------------------------------------|
D----4--------4--x8----6--x8----2--x8-----------|
A----2--------4--------6--------2---------------|
E-------------2--------4------------------------|

Verse x2
e------------------------------------------------|
B------------------------------------------------|
G---4--x12---------------------------------------|
D---4------2-x12--6-x8-----4--x8---2--x12--------|
A---2------2------6--------4-------2-------------|
E-----------------4--------2---------------------|

Pre-Chorus x1    (prt1 )           ( prt 2)
e--------------------     ------------------------------|
B--------------------     ------------------------------|
G-------4-x3---------     ----------4-------------------|
D--6-x3-4------2----- x2  ---6-x3---4-x3--2--x8--4--x8--| x1
A--4----2------2-x8--     ---4------2-----2------4------|
E--4-----------------     ---4-------------------2------|

Chorus x4
e-------------------------------------------------------|
B-------------------------------------------------------|
G---4-x8------------------------------------------------|
D---4-----4-x8--6-x8------------------------------------|
A---2-----4-----6-----2- x8-----------------------------|
E---------2-----4-----2---------------------------------|


Verse x2
Pre-Chorus x1
Chorus x4

Bridge  x1      (prt 1)          (prt 2)
e------------------------   -------------------------------|
B------------------------   -------------------------------|
G---------6-x4---9-x8----   --4-x4----6-x4---9-x8----------|
D--4-x4---6------9-------x3 --4-------6------9------4-x8---|x1
A--4------4------7-------   --2-------4------7------4------|
E--2---------------------   ------------------------2------|

chorus x1
bridge prt 1 x1
chorus x1
bridge x1

Chorus x4
Bridge x1



Important: The song above is NOT stored on the Chordie server. The original song is hosted at www.guitaretab.com. Chordie works as a search engine and provides on-the-fly formatting. Chordie does not index songs against artists/composers will. To remove this song please click here.

This song is displayed as text-only. Transposing and tuning is only available for chordpro-songs.

Login - add to songbook

Rating click stars to rate

Layout
Accuracy

SHARE PAGE  




You need to log in to post comments