Guitar Tabs, Chords and Lyrics


Rain  Concrete Blonde



--------------------------

E|-----------------|-----------------|-----------------|-----------------|
B|-----------------|-----------------|-----------------|-----------------|
G|---4---4---4---4-|---5---4---2---0-|---4---4---4---4-|---5---4---2---0-|
D|-2---2---2---2---|-2---2---2---2---|-0---0---0---0---|-0---0---0---0---|
A|-----------------|-----------------|-----------------|-----------------|
E|-----------------|-----------------|-----------------|-----------------|
E|-----------------|-----------------|-----------------|-----------------|
B|-----------------|-----------------|-----------------|-----------------|
G|-----------------|-----------------|-----------------|-----------------|
D|---5---5---5---5-|---5---5---5---5-|---5---5---5---5-|---4---4---4---4-|
A|-3---3---3---3---|-3---3---3---3---|-2---2---2---2---|-2---2---2---2---|
E|-----------------|-----------------|-----------------|-----------------|
S[A5]ay.    Try this many times
R[A5]ain    Is falling from my e[G]yes
        These kinds of d[Bmsus]ays       [Bm]   (I really m[G]iss you now)
        Seasons have ch[Bmsus]anged again[Bm]   (I really m[G]iss you now)
        I said your name, I w[A5]onder where you[Em] are
        Watching the rain, and[G] it makes me remember   [D]
riff
Things I tried to say

Solo: Bm G Bm G A5 Em G D D D D

Rain.. Laughing at the window, thought I saw your face
Only cloudy images, on my window pane
And all I hear is
Rain.. And things I try to say

A5: x02255

Riff A and B repeat a lot in this song (you can work out where they
go)
o

I retyped the chords from memory, I hope I didnt stuff up there

bye
eric

Important: The song above is NOT stored on the Chordie server. The original song is hosted at www.guitaretab.com. Chordie works as a search engine and provides on-the-fly formatting. Chordie does not index songs against artists'/composers' will. To remove this song please click here.

Text color:
Chord color:
Chord grids: 
Font size:    
Page size: 

A5 Bm Bmsus D Em G
variations - click chord images

Login - add to songbook

Transpose chords

Tuning

Rating click stars to rate

Layout
Accuracy

SHARE PAGE  




You need to log in to post comments