Guitar Tabs, Chords and Lyrics


75  Connells

E |------------------0-0---3-------|--------0-0-0-0---0-0-----------|


B |------------------1-1---0-------|--------1-1-1-1---1-1-----------|


G |------------------0-0---0-------|--------2---2-2---2-2-----------|


D |------2-0---------2-2---0-------|--------2---2-2---2-2-----------|


A |0---------3-0-3======---2-------|0---0========================---|


E |------------------------3-------|--------------------------------|

[F]   Got no [C]reason for [F]coming to me and the [C]rain [C/B]running [F/A]down.
C Am(*)
There's no reason.
[F]   And the [C]same voice [F]coming to me like it's [C]all s[C/B]lowing [F/A]down.
And bel[C]ieve me[G]
I was the [Am]one who let you [C]know, I was your [G]sorry-ever-[F]after. '7[Am]4-'7[C]5[G]
[F]   It's not [C]easy, [F]nothing to say 'cause it's [C]already [F]said.
C Am(*)
It's never easy.
When I [F]look on your [C]eyes then I [Am]find that [G]I'll do [F]fine.
When I [Am]look on your [C]eyes then I do [G]better.
Chorus:
I was the [Am]one who let you [C]know, I was your [G]sorry-ever-[F]after. '7[Am]4-'7[C]5[G]
Givin me [Am]more and i'll de[C]fy, cause you're [G]really only [F]after '7[Am]4-'7[C]5.[G]
Repeat intro
    [C]                [G]                 [Am]                                        
E -|--------------3/5-3---------0---/3-------------------------------|
B 3/5-3---3/5-3-----------5---------|----0-------3-------------------|
G -|----5-------5-------------------|--------5-------4---5-4/5-5\4---|
D -|--------------------------------|--------------------------------|
A -|--------------------------------|--------------------------------|
E -|--------------------------------|--------------------------------|

   [C]                [G]                 [Am]                                         
E |--------------------------------|--------------------------------|
B |--------------------------------|-------------------------------3/
G |0---------0h2h4/5-----4-----2-0-h2-------------------------------|
D |--------------------------------|--------------------------------|
A |--------------------------------|--------------------------------|
E |--------------------------------|--------------------------------|

   [C]                [G]                 [Am]                [F]                         
E |--------------3/5-3------------3/5-3---3/5-3---------------------|
B /5-3---3/5-3-----------5-----5---|----5-------5---------5/6---5---|
G |----5-------5-------------------|----------------5---------------|
D |--------------------------------|--------------------------------|
A |--------------------------------|--------------------------------|
E |--------------------------------|--------------------------------|

   [C]                [G]                                                          
E |--------------------------------|
B |--------------------------------|
G |------------------------5---4---|
D |--------------------------------|
A |--------------------------------|
E |--------------------------------|

[F]   Got no [C]reason for [F]coming to me and the [C]rain [C/B]running [F/A]down.
C Am(*)
There's no reason.
When I [F]look on your [C]eyes then I [Am]find that [G]I'll do [F]fine.
When I [Am]look on your [C]eyes then I do [G]better.
Chorus:
I was the [Am]one who let you [C]know, I was your [G]sorry-ever-[F]after. '7[Am]4-'7[C]5[G]
Givin me [Am]more and i'll de[C]fy, cause you're [G]really only [F]after '7[Am]4-'7[C]5.[G]
repeat chorus
repeat chorus 2x without words

Important: The song above is NOT stored on the Chordie server. The original song is hosted at www.guitaretab.com. Chordie works as a search engine and provides on-the-fly formatting. Chordie does not index songs against artists'/composers' will. To remove this song please click here.

Text color:
Chord color:
Chord grids: 
Font size:    
Page size: 

Am C C/B F G
variations - click chord images

Login - add to songbook

Transpose chords

Tuning

Rating click stars to rate

Layout
Accuracy

Jango Player

SHARE PAGE  




You need to log in to post comments