Guitar Tabs, Chords and Lyrics


Take Care  Copeland

     [C]   [D]   [Em]    [G]   [F#]    [As]   [Bs]                                                           
e----3--2--3---3--3---3--3-|
b----3--3--3---3--3---3--3-|
g----0--2--0---0--2---2--0-|
d----2--0--2---0--0---2--0-|
a----3--x--2---2--x---0--2-|
e----x--x--0---3--2---x--x-|


Intro:

e ------------------------x-x------------------3----3-3-2--2-2-2-2---3---3--|
b ----------------------3-3-3------------------3----3-3-3--3-3-3-3---3---3--|
g ----4-------------------x-x------------------0----0-0-2--2-2-2-2---0---0--|
d --5---5-5----5---5-5----5-5------------------2----2-2-0--0-0-0-0---2---2--|
a -3-3---3--0-0-2-2-3-3---3-3--------------3---3----3-3-x------------2---2--|
e ------------------------x-x------------------x----x-x-x------------0---0--|

"I'll take care of you.. oh...have faith that
e-----3-3--3----3-3------3-3-3--x-------3----3-3-2--2-2-2-2---33-33-33------|
b-----3-3--3----3-3------3-3-3--x-------3----3-3-3--3-3-3-3---33-33-33------|
g-----0-0--0----0-0------0-0-0--x-------0----0-0-2--2-2-2-2---00-00-00------|
d-----2-2--2----2-2------2-2-2--x-------2----2-2-0--0-0-0-0---22-22-22------|
a-----2-2--3----3-3------3-3-3--x---3---3----3-3-x------------22-22-33------|
e-----0-0--x----x-x------x-x-x--x-------x----x-x-x------------00-00-xx------|

..when you call my name I'll be there"

Verse:
It was a str[C]aight faced [As]lie [Bs]I be[C]lieved
It was a str[C]aight faced [As]lie that [Bs]you would [C]ever leave me
So for [As]now I'll keep believing your [Bs]wor[C]ds
and soon en[As]ough my strength will ret[C]urn[D]

Chorus:
I'll take c[C]are of you, [D]Oh
Have fa[Em]ith that when you [C]call my name I'll be there  [D]
I'll be right [As]the[Bs]re.[C]....
So keep br[C]eathing, [D]Oh
K[G]eep that sweet heart of[F#] yours b[Em]eating
I'll be r[D]ight t[C]here  [D]
I'll be right t[Em]her[Em]e..[C]...

Verse 2:
Let me draw the b[C]linds for you   [As]    [Bs]    [C]
You can watch the sunset[C] from the [As]bed in [Bs]your hosp[C]ital room
Until you're sle[As]eping and I[Bs]'m su[C]re
That I don't un[As]derstand how I've found a love so p[C]ure  [D]

Repeat Chorus:
I'll take c[C]are of you, [D]Oh
Have fa[Em]ith that when you [C]call my name I'll be there  [D]
I'll be right [As]the[Bs]re.[C]....
So keep br[C]eathing, [D]Oh
K[G]eep that sweet heart of[F#] yours b[Em]eating
I'll be r[D]ight t[C]here  [D]
I'll be right t[Em]her[Em]e..[C]...    [D]

Little Solo Thing (Chord part):

Em Em C (2x) Em Em C D

Bridge (Chords - no strum pattern):
e -x--------------x-------------x-----------x--x----x-----x--------x---x--x-|
b -0--------------0-------------0-----------0--0----0-----0--------0---0--0-|
g -0--------------0-------------0-----------0--0----0-----0--------0---0--0-|
d -x--------------x-------------x-----------x--x----x-----x--------x---x--x-|
a -3--------------5-------------7-----------9-10----3-----5--------7---9-10-|
e -x--------------x-------------x-----------x--x----x-----x--------x---x--x-|

Don't lift a finger let me show you.. the only way to let this go...
e -x--------------x-------------x--------|
b -0--------------0-------------0--------|
g -0--------------0-------------0--------|
d -x--------------x-------------x--------|
a -3--------------5-------------7--------|
e -x--------------x-------------x--------|

Don't lift a finger let me hold you...
e -x----x----------x------------x---------------x---x--x---|
b -0----0----------0------------0---------------0---0--0---|
g -0----0----------0------------0---------------0---0--0---|
d -x----x----------x------------x---------------x---x--x---|
a -9---10----------3------------5---------------7---9-10---|
e -x----x----------x------------x---------------x---x--x---|

I'll hold you here until the pain it has all gone

Finish with the chorus twice and end on:

Em Em C (4x)


Jordan
bjr007@gmail.com

Important: The song above is NOT stored on the Chordie server. The original song is hosted at www.guitaretab.com. Chordie works as a search engine and provides on-the-fly formatting. Chordie does not index songs against artists'/composers' will. To remove this song please click here.

Text color:
Chord color:
Chord grids: 
Font size:    
Page size: 

C D Em F# G
variations - click chord images

Login - add to songbook

Transpose chords

Tuning

Rating click stars to rate

Layout
Accuracy

SHARE PAGE  




You need to log in to post comments