Guitar Tabs, Chords and Lyrics


There Cannot Be A Close Second   Copeland



There Cannot Be A Close Second by Copeland
100% correct, enjoy! :)
LMAX!


Chords Used:

   E -  C# -  B - E* - A* - F#*
E|----------------------------|
B|----------------------------|
G|-1----6-----2---7----2---11-|
D|-2----6-----2---7----2---11-|
A|-2----4-----4---9----0----9-|
E|----------------------------|

Intro:

---7~--7p5-----------4~--4p2---|
-5----------7p5---2----------4-|
-------------------------------|
-------------------------------|
-------------------------------|
-------------------------------|

---7~--7p5-----------4~------4(p)2--|
-5----------7p5---2-----4p2---------|
------------------------------------|
------------------------------------|
------------------------------------|
------------------------------------|


Intro/Verse Chords:

"You've Got An Extra.."
  C#    A*  B
----xxx------------------  -------4----------------|
----xxx------------------  --4p2-------------------|
--4-xxx-2--2222----------  ------------------------|
--4-xxx-2--2222----------  ------------------------|   (x2)
--6-xxx-0--4444----------  ------------------------|
----xxx------------------  ------------------------|


Pre-Chorus:

"Shining Back At You..

 A*  B
------------------------|
-00--2~-----------------|
-22--2~-----------------|
-22--4~-----------------|
------------------------|
------------------------|

         "So forgive me..."
 C#  A*                       B
------------------------------------|
-----00------00-------00------------|
-44--22-44---22--44---22---4444444--|
-44--22-44---22--44---22---4444444--|
-66-----66-------66--------2222222--|
------------------------------------|


First Chorus:

"When you look at me.."
--12-12-12-12-14-14-12-12-14-14-|
--12-12-12-12-12-12-12-12-14-14-|
--------------------------------|  (do this until First Chorus Ends)
--------------------------------|
--------------------------------|
--------------------------------|


Verse
Pre Chorus


Second Chorus:

E* -  B -  C# -  A* (x2)

Bridge:

C# - B - A*
C# - B - E* - F#*
C# - B - A*
B - B - B - B - B (strum B continuously)
(2x)


"Sometimes I don't know how.."
---7~--7p5-----------4~--4p2---|
-5----------7p5---2----------4-|
-------------------------------|
-------------------------------|
-------------------------------|
-------------------------------|

---7~--7p5-----------4~------4(p)2--|
-5----------7p5---2-----4p2---------|
------------------------------------|
------------------------------------|
------------------------------------|
------------------------------------|


Pre Chorus


Final Chorus:

E - B - C# - A* (x2)

SONG ORDER:

Intro
First Verse
Pre-Chorus
First Chorus
Second Verse
Pre-Chorus
Second Chorus
Bridge
Pre-Chorus
Third Chorus


KEY:
~ = let ring
p = pull off


Important: The song above is NOT stored on the Chordie server. The original song is hosted at www.guitaretab.com. Chordie works as a search engine and provides on-the-fly formatting. Chordie does not index songs against artists/composers will. To remove this song please click here.

This song is displayed as text-only. Transposing and tuning is only available for chordpro-songs.

Login - add to songbook

Rating click stars to rate

Layout
Accuracy

SHARE PAGE  




You need to log in to post comments