Guitar Tabs, Chords and Lyrics


Wheres The Love   Corey Smith



-------------------------------------------------------------------------------
			     WHERE'S THE LOVE - Corey Smith
-------------------------------------------------------------------------------
Tabbed by: Jayrod

Again, I'm not sure if Corey plays this different live, but the current tab for this
looks like it's tabbed relative to a Capo 3. But that tab helped me with mine, so thank
This isn't exact again, but it's pretty decent. Admittedly I can't figure out that 
Don't forget to drop the E string.

Tuning: Drop D

VERSES
e|--------------------------------------------------|
B|--------------------------------------------------|
G|----9----12---------7----11----9----7--7h9--------|
D|--------------------------------------------------|
A|----7----10---(7)---5----9-----7------------------|
D|--------------------------------------------------|


PRECHORUS "So he's lookin' for some pocket change..."
e|--------------------------------------------------|
B|--------------------------------------------------|
G|--------------------------------------------------|
D|-----------2----5----0---------0----0----2--------|
A|-----------2----5--------0h2--------0----2--------|
D|----12\----2----5-------------------0----2--------|


CHORUS "Oh where's the love..."
e|-------------------------------------------------------|
B|----3------------------------------------------3-------|
G|----2------------------------------------------2-------|
D|----0-------2----5----0---------0----0----2----0-------|
A|----0-------2----5--------0h2--------0----2----0-------|
D|----0-------2----5-------------------0----2----0-------|

VERSE (this works to fill it in)
e|---------------------------------------------------------------------|
B|---------------------------------------------------------------------|
G|----------------------------------------4----------7----6----4-------|
D|----2----5---(2)---4---(0)---2----x4----2----x4----------------------|
A|----2----5---(2)---4---(0)---2----------2----------5----4----2-------|
D|----2----5---(2)---4---(0)---2----------2----------------------------|

ENDING (repeat chorus a few times then)
e|-------------------------------------------------|
B|-------------------------------------------------|
G|----7-----4p2--0-------0----------------4--------|
D|-------------------4-------4---2---0----2--------|
A|----5-----------------------------------2--------|
D|----------------------------------------2--------|

| \  slide down
| h  hammer-on
| p  pull-off


Important: The song above is NOT stored on the Chordie server. The original song is hosted at www.guitaretab.com. Chordie works as a search engine and provides on-the-fly formatting. Chordie does not index songs against artists'/composers' will. To remove this song please click here.

This song is displayed as text-only. Transposing and tuning is only available for chordpro-songs.

Login - add to songbook

Rating click stars to rate

Layout
Accuracy

SHARE PAGE  




You need to log in to post comments