Guitar Tabs, Chords and Lyrics


Dahlonega   Corey Smith



i am pretty sure this is right i could only get the intro but if you have the rest or 
build off of this pleas tab it out i beg u

tuning:standard
capo:on the third fret
S:SLIDE
PO:PULL OFF
B:BEND
OH:OPEN HAMER
e--0---3po--6po3-------------------------3--0----oh1po---------------|
b---------------3s1------oh1------1---------------------3po1---------|
g---------------------2-------2--------------------------------------|
d--------------------------------------------------------------------|
a--------------------------------------------------------------------|
E--------------------------------------------------------------------|
                 do this 2 times
e---------------------3--0---------------3---0-----------------------|
b------oh1-------1----------------oh1--------------------------------|
g---2--------2----------------2--------------------------------------|
d--------------------------------------------------------------------|
a--------------------------------------------------------------------|
E--------------------------------------------------------------------|

e------1---0------------------1-0----------------------------3---0---|
b-------------3--1h3po1------------3-1h3o1-------0h1----1------------|
g----------------------------------------------2------2--------------|
d--3-----------------------3-----------------------------------------|
a--------------------------------------------------------------------|
E--------------------------------------------------------------------|

and thats as far as i got i hope that it is not to hard to understand i made it as 


Important: The song above is NOT stored on the Chordie server. The original song is hosted at www.guitaretab.com. Chordie works as a search engine and provides on-the-fly formatting. Chordie does not index songs against artists'/composers' will. To remove this song please click here.

This song is displayed as text-only. Transposing and tuning is only available for chordpro-songs.

Login - add to songbook

Rating click stars to rate

Layout
Accuracy

SHARE PAGE  




You need to log in to post comments