Like A Star

Corinne Bailey Rae

 Dm7E7b9Am7Am6Gm13C9E11Ddim/F
e:----------------------------5-----3--- ----------------:
B:---6-----6------5-----5-----5-----3--- ---7------6-----:
G:---5-----7------5-----5-----3-----3--- ---7------7-----:
D:---0-----6------5-----4-----3-----2--- ---7------6-----:
A:---------7------0-----0--------------- ---7------8-----:
E:-------------------------------------- ----------------:


Chorus:
Fmaj7 Eaug Am7 Gm7 C9 D#9/G D9/F# G#m7
 :--------------------------------- ----6------5----------:
 :---1--------------5-----3----3--- ----6------5-----4----:
 :---2-------5------5-----3----3--- ----6------5-----4----:
 :---2-------6------5-----3----2--- ----5------4-----4----:
 :-----------7-----------------3--- ----------------------:
 :---1-------0------5-----3-------- -----------------4----:


Bridge:
(notice the chords here are larger the second time)
 Dm9E7Am9Dm7Dm9E7Am9Dm7/GDm7/C
 :--12----10----7-----8--- --12----10----7------8------8----:
 :--10-----9----8-----6--- --10-----9----8------6------6----:
 :--10-----9----9-----8--- --10-----9----9------7------7----:
 :------------------------ --10-----9----7------5-----------:
 :------------------------ --12-----7----0------------------:
 :------------------------ --10------------------------8----:


- 30th /September /08
Just mail me at Maitinin@gmail.com with questions, comments and corrections!



























Am6 Am7 Am9 C9 Dm7 Dm7/C Dm7/G Dm9 E11 E7 E7b9 Gm13
variations - click chord images
Transpose chords:
Tuning:
Cool service:
View: Size:
A  A  A
Rating:
Layout:
  • Currently 3.6/5 Stars.
  • 1
  • 2
  • 3
  • 4
  • 5
 
Accuracy:
  • Currently 2.3/5 Stars.
  • 1
  • 2
  • 3
  • 4
  • 5
 
click stars to rate
Chordie recommends:
Learn to play songs at Jamplay.com with video guitar lessons
Songbook:
Login to add this song to your songbook
Support the artist
Preview/buy this song
MSN Music
Why this non-profit ad?

 
login to add comments/video/corrections