Guitar Tabs, Chords and Lyrics


Ca Arrive  Corneille

-------------------------------------------------------------------------



-------------------------------------------------------------------------

   [Am]                 [Emadd9]        [Esus4]      [Em]   [Am]                 [Emadd9]        [Esus4]      [Em]            
e|-----0-----0-000----------00000-0------0-----0-000----------00000-0---|
B|-0h1---0-1-1-111----------00000-0--0h1---0-1-1-111----------00000-0---|
G|-2---------2-222--------0-22222-0--2---------2-222--------0-22222-0---|
D|-2---------2-222------4---22222-2--2---------2-222------4---22222-2---|
A|-0---------0-000----2-----22222-2--0---------0-000----2-----22222-2---|
E|------------------0-------00000-0-------------------0-------00000-0---|

   [Am]                 [Emadd9]        [Esus4]       [Cmaj7]                 [G]                            
e|-----0-----0-000----------00000------------0-000----------------------|
B|-0h1---0-1-1-111----------00000------0h3p0-0-000------0h1p0-0-000-----|
G|-2---------2-222--------0-22222------------0-000------------0-000-----|
D|-2---------2-222------4---22222----2-------2-222----0-------0-000-----|
A|-0---------0-000----2-----22222--3---------3-333------------2-222-----|
E|------------------0-------00000-------------------3---------3-333-----|

   [Am]                 [Emadd9]        [Esus4]      [Em]   [Am]                 [Emadd9]        [Esus4]      [Em]            
e|-----0-----0-000----------00000-0------0-----0-000----------00000-0---|
B|-0h1---0-1-1-111----------00000-0--0h1---0-1-1-111----------00000-0---|
G|-2---------2-222--------0-22222-0--2---------2-222--------0-22222-0---|
D|-2---------2-222------4---22222-2--2---------2-222------4---22222-2---|
A|-0---------0-000----2-----22222-2--0---------0-000----2-----22222-2---|
E|------------------0-------00000-0-------------------0-------00000-0---|

   [Am]                 [Emadd9]        [Esus4]       [Cmaj7]                 [Dsus2]        [D#dim7]                    
e|-----0-----0-000----------00000------------0-000--000000--222222------|
B|-0h1---0-1-1-111----------00000------0h3p0-0-000--333333--111111------|
G|-2---------2-222--------0-22222------------0-000--222222--222222------|
D|-2---------2-222------4---22222----2-------2-222--000000--111111------|
A|-0---------0-000----2-----22222--3---------3-333----------------------|
E|------------------0-------00000---------------------------------------|

VERSE1
[Am]   Toi qui songe à to[Emadd9]n départ [Esus4]      [Em]
[Am]   Tiens ma main et reste [Emadd9]encore,[Esus4] un pe[Em]u
[Am]   Trouve la paix dans les[Emadd9] regards
[Esus4]De ceux qui t’[Cmaj7]aiment si fort
Si tu [G]pars

Yeah...
[Am]   Tu n’es pas malade,[Emadd9] amour  [Esus4]      [Em]
[Am]   C’est la peine des i[Emadd9]mprudents, [Esus4]qu’on [Em]dit
[Am]   Et pendant qu’ils co[Emadd9]mptent les jours
[Esus4]On prê[Em]che ce [Cmaj7]qu’on apprend de ta [Dsus2]vie    [D#dim7]


CHORUS (strummed)
Em D/F# Em = 022000
Ca arrive D/F# = 200232
G Cmaj7 Em D/F# G = 320003
Même aux meilleurs d’entre nous Cmaj7 = x32000
G Cmaj7 Am Am7 Am = x02210
Je t’aimerais encore, et au nom de tous Am7 = x02213
Em F#m7#5 Cmaj7 Cmaj7* F#m7#5 = 200320
Pour le meilleur de tes jours Cmaj7* = x32003

VERSE3 (same chords as before)
Toi qui songe à ton départ
Il y a demain, reste encore un peu
Trouve la paix et donne espoir,
Aux autres qui craignent leur sort
Si tu pars
Yeah...
Tu ne vaux pas moins qu’un autre
Et t’ira pas droit en enfer non plus
Buvons plutôt à la notre,
Et à tes beaux exploits, et ta vertu

CHORUS (same as before)
Ca arrive
Même aux meilleurs d’entre nous
Je t’aimerais encore, et au nom de tous
Pour le meilleur de tes jours

INTERLUDE/SOLO
Am7 Em Em7 x3

[Cmaj7]       [Dsus2]Oh ça a[D#dim7]rrive...

CHORUS (repeat about 4 times)
Ca ar[Em]rive [D/F#]
[G]Même aux mei[Cmaj7]lleurs d’entre [Em]nous  [D/F#]
Je [G]t’aimerais en[Cmaj7]core, et au no[Am]m de tous [Am7]
Em Dsus2 Cmaj7 Cmaj7* D
Pour le meilleur de tes jours

OUTRO (same chords as chorus, except for last Em9)
Ca arrive
Même aux meilleurs d’entre nous
Je t’aimerais encore, et au nom de tous
Em Dsus2 Cmaj7 Cmaj7* D Em9 (024030)
Pour le meilleur de tes jours

========================================================================
Comment, rate, appreciate!

Important: The song above is NOT stored on the Chordie server. The original song is hosted at www.guitaretab.com. Chordie works as a search engine and provides on-the-fly formatting. Chordie does not index songs against artists'/composers' will. To remove this song please click here.

Text color:
Chord color:
Chord grids: 
Font size:    
Page size: 

Am Am7 Cmaj7 D#dim7 D/F# Dsus2 Em Emadd9 Esus4 G
variations - click chord images

Login - add to songbook

Transpose chords

Tuning

Rating click stars to rate

Layout
Accuracy

SHARE PAGE  




You need to log in to post comments