eToCache5 = ""; ?> Iwacu by Corneille - guitar chords, guitar tabs and lyrics - chordie

Iwacu

Corneille

-------------------------------------------------------------------------

-------------------------------------------------------------------------

 D#m7-Em7C#m7-Dm7D#m7-Em7C#m7-Dm7Dm7D7sus2
   v   v^ v^ v    v   v^ v^ v    v   v^ v^ v    v   v^ v^   v^   v^
e|-6/7-77-xx-7----4/5-55-xx-5----6/7-77-xx-7----4/5-55-xx---55---88-----|
B|-7/8-88-xx-8----5/6-66-xx-6----7/8-88-xx-8----5/6-66-xx---66---55-----|
G|-6/7-77-xx-7----4/5-55-xx-5----6/7-77-xx-7----4/5-55-xx---55---55-----|
D|-8/9-99-xx-9----6/7-77-xx-7----8/9-99-xx-9----6/7-77-xx---77---77-----|
A|-6/7-77-xx-7----4/5-55-xx-5----6/7-77-xx-7----4/5-55-xx---55---55-----|
E|-x/x-xx-xx-x----x/x-xx-xx-x----x/x-xx-xx-x----x/x-xx-xx---xx---xx-----|


VERSE1
 D#m7-Em7C#m7-Dm7
     Viens me voir, c'est tout près d'ici
 D#m7-Em7
C'est pas ce qu'on t'a fait croire
 C#m7-Dm7Dm7D7sus2D#m7-Em7
    C'est un paradis pour ceux qui veulent bien croire
 C#m7-Dm7D#m7-Em7C#m7-Dm7Dm7D7sus2
    Qu'un peu de soleil change une vie,     oooh           
 D#m7-Em7C#m7-Dm7D#m7-Em7
     Prends des ailes, c'est juste à côté à vol d'oiseau, ma belle
 C#m7-Dm7Dm7D7sus2D#m7-Em7
    Juste de l'autre côté de l'eau, oui viens ma belle
 C#m7-Dm7D#m7-Em7C#m7-Dm7Dm7D7sus2
    Si tu veux, emmène la famille                    

PRE-CHORUS (continue same as in verse)
Le bon vent y donne envie d'y revenir encore
Les bons gens y donnent envie de s'aimer plus fort
Le bon temps y donne envie de rêver encore
Oublie ce que tu sais, lache ce que tu fais
Fais comme si tu savais

CHORUS
 D#m7-Em7C#m7-Dm7
        Viens ma belle, oublie les dire et allons, Iwacu
 D#m7-Em7C#m7-Dm7
        Viens ma belle, cesse de courir et marchons, Iwacu
 D#m7-Em7C#m7-Dm7
        Viens ma belle, mets ton sourire et partons
 Fmaj7
Viens voir comme c'est beau,
 Em7Am
 comme c'est chaud ce qu'il te faut
 GFmaj7D#m7-Em7C#m7-Dm7D#m7-Em7C#m-Dm7Dm7D7sus2
 Oh  oh    oooh             oh oh oooh                     

VERSE2 (same chords as verse1)
N'aie pas peur, faut pas que le journal du soir t'angoisse mon coeur
On a autant si c'est pas plus de classe qu'ailleurs
On attend juste notre saison
Prends des ailes, c'est juste à côté à vol d'oiseau, ma belle
Juste de l'autre côté de l'eau, oui viens ma belle
Si tu veux, Installe la famille

PRE-CHORUS (same as before)
Le bon vent y donne envie d'y revenir encore
Les bons gens y donnent envie de s'aimer plus fort
Le bon temps y donne envie de rêver encore
Oublie ce que tu sais, lâche ce que tu fais
Fais come si tu savais

CHORUS (repeat x2)
 D#m7-Em7C#m7-Dm7
       Viens ma belle, oublie les dire et allons, Iwacu
 D#m7-Em7C#m7-Dm7Dm7D7sus2
      Viens ma belle, cesse de courir et marchons, I---wa----cu

 D#m7-Em7C#m7-Dm7
       Viens ma belle, mets ton sourire et partons
 Fmaj7
Viens voir comme c'est beau,
 Em7Am
 comme c'est chaud ce qu'il te faut
 GFmaj7
 Oh oh   oooh

INTERLUDE
 Em7Dm7Em7Dm7
SOLO
The chords are like this:
 Fmaj7Em7AmGFmaj7
The “solo” is something like this:
e|-8---------------------------------------|
B|---8h10-8-10p8---------------------------|
G|---------------9-7-7--------9-7-----7-9--|  x2
D|---------------------7-7h10-----h10------|
A|-----------------------------------------|
E|-----------------------------------------|
e|------------------------------------------|
B|----------8-------------------------------|
G|-7—7h9-10---h10-9-7-7--------9-7-----7-9--| x2
D|----------------------7-7h10-----h10------|
A|------------------------------------------|
E|------------------------------------------|
e|-8---------------------------------------|
B|---8h10-8-10p8---------------------------|
G|---------------9-7-7--------9-7-----7-9--|  x2 (second guitar here)
D|---------------------7-7h10-----h10------|
A|-----------------------------------------|
E|-----------------------------------------|


CHORUS (same as before, solo plays in background)
Viens ma belle, oublie les dire et allons,Iwacu
Viens ma belle, cesse de courir et marchons, Iwacu
Viens ma belle, mets ton sourire et partons
Viens voir comme c'est beau,
comme c'est chaud ce qu'il te faut
Oh oh oh

OUTRO (continues with chorus chords + solo in background, until end)
Iwacu
Iwacu
Viens voir comme c'est beau,
comme c'est chaud ce qu'il te faut
Oh oh oh
Iwacu
Iwacu

=========================================================================
Comment, rate, appreciate!


Am D7sus2 Dm7 Em7 Fmaj7 G
variations - click chord images
Transpose chords:
Tuning:
Cool service:
View: Size:
A  A  A
Rating:
Layout:
  • Currently 2.9/5 Stars.
  • 1
  • 2
  • 3
  • 4
  • 5
 
Accuracy:
  • Currently 2.7/5 Stars.
  • 1
  • 2
  • 3
  • 4
  • 5
 
click stars to rate
Chordie recommends:
Learn to play guitar with video-based, online guitar lessons at JamPlay.com
Songbook:
Login to add this song to your songbook
Support the artist
Preview/buy this song
MSN Music
Why this non-profit ad?

 
login to add comments/video/corrections