Guitar Tabs, Chords and Lyrics


Nada Fue Un Error  Coti

   [A]         [E]           [D]             [E]                                                           
E ----|-----------|-----------|-----------|-------|
B ----|-3-2-------|-2-3-5-----|-3-2-------|-------|
G --2-|-----4-2-4-|-------2-2-|-----4-2-4-|-2/4-2-|
D ----|-----------|-----------|-----------|-------|
A ----|-----------|-----------|-----------|-------|
E ----|-----------|-----------|-----------|-------|

Parte de coti:
    T[A]engo una mala noticia
    n[E]o fue de casualidad
    y[D]o queria que nos pasara y tu, y [E]tu

lo dejaste pasar

    N[A]o quiero que me perdones,
    y[E] no me pidas perdon
    n[D]o me niegues que me buscaste
    y[E] nada nada de esto
    nada de esto fue un[A] error [E]uoo
    n[D]ada fue un error  [E]
    nada de esto fue un[A] error [E]uoo
    n[D]ada fue un error

yo te digo!!

    L[A]os errores no se eligen
    p[E]ara bien o para mal
    n[D]o falle cuando viniste y tu, y [E]tu

no quisiste fallar

    A[A]prendi la diferencia
    e[E]ntre el juego y el azar
    q[D]uien te mira y quien se entrega
    y[E] nada nada de esto
    nada de esto fue un[A] error [E]uoo
    n[D]ada fue un error  [E]
    nada de esto fue un[A] error [E]uoo
    n[D]ada fue un error

guitarra!!


here you need listen the song to play this part...inguia que gringo soi
aqui ocupas escuchar la cancion para entrar a tiempo...

E-----7-----5-----3-----2-------------|
B-7-8---8-7---7-5---5-3---3-2-3-2-3-2-|
G-------------------------------------|
D-------------------------------------|
A-------------------------------------|
E-------------------------------------|
E-----7-----5-----3-----2-------|
B-7-8---8-7---7-5---5-3---3-2-3-|
G-------------------------------|
D-------------------------------|
A-------------------------------|
E-------------------------------|


finally the solo you need play Mi
Terminado el solo ocupas tocar Mi

Paulina Rubio:
    T[A]engo una mala noticia
    n[E]o fue de casualidad
    y[D]o queria que nos pasara y tu, y [E]tu

lo dejaste pasar

    N[A]o quiero que me perdones
    y[E] no me pidas perdon
    n[D]o me niegues que me buscaste
    y[E] nada nada de esto
    nada de esto fue un[A] error [E]uoo
    n[D]ada fue un error  [E]
    nada de esto fue un[A] error [E]uoo
    n[D]ada fue un error

Julieta Venegas:
    L[A]os errores no se eligen
    p[E]ara bien o para mal
    n[D]o falle cuando viniste y tu, y [E]tu

no quisiste fallar

    A[A]prendi la diferencia
    e[E]ntre el juego y el azar
    q[D]uien te mira y quien se entrega
    y[E] nada nada de esto
    nada de esto fue un[A] error [E]uoo
    n[D]ada fue un error  [E]
    nada de esto fue un[A] error [E]uoo
    n[D]ada fue un error

slow more slow
E-----7-----5-----3-|----2-|-----0--|
B-7-8---8-7---7-5---|5-3---|-----2--|
G-------------------|------|-----2--|
D-------------------|------|-----2--|
A-------------------|------|-----0--|
E-------------------|------|-----0--|



Transcripción Por David Ramos

Important: The song above is NOT stored on the Chordie server. The original song is hosted at www.guitaretab.com. Chordie works as a search engine and provides on-the-fly formatting. Chordie does not index songs against artists'/composers' will. To remove this song please click here.

Text color:
Chord color:
Chord grids: 
Font size:    
Page size: 

A D E
variations - click chord images

Login - add to songbook

Transpose chords

Tuning

Rating click stars to rate

Layout
Accuracy

SHARE PAGE  




You need to log in to post comments