Antes Que Ver El Sol

Coti

D*  E|--2-2-2-2-2-2-2-|

B|--3-3-3-3-3-2-0-|
G|--2-2-2-2-2-2-2-|
D|----------------|
A|----------------|
E|----------------|
E||--------------------------|-----0--------------------||
B||---------2----------2-----|-----------0----2--0------||
G||*-----2----------2-----1--|--2-----2-------------2--*||
D||*--4--------2-------------|-------------------------*||
A||--------------------------|--------------------------||
E||--------------------------|--------------------------||

 AE
 Hay cuando mi vida 
E F#m D/D*
Cuando va a ser el día en que tu pared desaparezca
A E F#m D*/D
Fabriqué un millón de ilusiones
A E F#m D*/D
Prisioneras que se hicieron canciones
 AE
Ay cuando mi vida cuando
F#m D*/D
vas a cerrar tus ojos por mi oh

D E F#m D*/D

 DE
 Antes que ver el sol
A D*/D
prefiero escuchar tu voz

D E F#m D*/D

 DE
 Antes que ver el sol
A D*/D A
prefiero escuchar tu voz

A E F#m D*/D
Si te vas para que regresaste
A E F#m D*/D
Y además solo quise besarte
 A
Ay cuando mi vida
E F#m D*/D
Cuando va a ser el día en que tu pared desaparezca
A E F#m D*/D
Fabriqué un millón de ilusiones (ilusiones)
A E F#m D*/D
Prisioneras que si hicieron canciones

 AE
Ay cuando mi vida cuando
 F#mD
vas a cerrar tus ojos por mi, oh

 DEF#mD
 DE
 Antes que ver el sol
 AD
Prefiero escuchar tu voz

 DEF#mD
 DE
 Antes que ver el sol
 AD
prefiero escuchar tu voz

 DAEAE
               x2
 DAF#m

Prefiero tu voz, prefiero tu voz
 F#mD
prefiero escuchar tu voz
 E
antes que ver el sol (antes que ver el sol)
 AD
prefiero escuchar tu voz
 DE
Prefiero tu voz, prefiero tu voz
 F#mD
prefiero escuchar tu voz
 E
antes que ver el sol (antes que ver el sol)
 ADA
prefiero escuchar tu voz    


A D E F#m
variations - click chord images
Transpose chords:
Tuning:
Cool service:
View: Size:
A  A  A
Rating:
Layout:
  • Currently 2.2/5 Stars.
  • 1
  • 2
  • 3
  • 4
  • 5
 
Accuracy:
  • Currently 2.3/5 Stars.
  • 1
  • 2
  • 3
  • 4
  • 5
 
click stars to rate
Chordie recommends:
Learn how to play guitar at JamPlay.com
Songbook:
Login to add this song to your songbook
Support the artist
Preview/buy this song
MSN Music
Why this non-profit ad?

 
login to add comments/video/corrections