eToCache5 = ""; ?> Psychotic Reaction by Count Five - guitar chords, guitar tabs and lyrics - chordie

Psychotic Reaction

Count Five

 4X; barmonica (key of B) enters 3rd time
        fuzz guitar  

v v v v v v v v
	-----------------|-----------------|
	-----------------|-----------------|
	-----------------|-----------------|
	-----4-----2-----|-----4-----2-----|
	--------24-------|--------24---4---|
	-2---------------|-2---------------|


 16X
        rhythm guitar (strum as indicated) w/tambourine on 2 and 4  

 EF#E
         v   v     v   v   v   v
	----//--/|-/-/-/-/----//--/

(repeat 16 times)

bass [enters midway through 4th repeat; full drum kit enters
midway through 8th repeat]

v v v v
    ------------------|
    -4---4-------2--3-|
    ---------2--------|
    ------------------|


Verse 1:

 F#EF#EF#EF#
        I feel depressed, I feel so bad             
 EF#EF#EF#EF#
        'Cause you're the best girl that I ever had           
 EF#EF#EF#EF#
        I can't get your love, I can't get a fraction         
 EF#EF#EF#E
        Uh-oh, little girl, psychotic reaction     
 N.C.
                          F#  
(shouted) And it feels like this!

 drum break

Instrumental break (double-time feel):

 23 bars of guitar/barmonica solos

bass:

 F#
         v   v   v   v     v   v   v   v     v
	-----------------|-----------------|---|
	-4---4---4---4-4-|-4---4---4-----2-|-4-|
	-----------------|-------------4---|---|
	-----------------|-----------------|---|

(repeat 22 times)

 drum break w/pbasing

 full band repeats F#-E (as per verses), 8X

Verse 2:

I feel so lonely night and day
I can't get your love, I must stay away
I need you girl, by my side
Uh-oh, little girl, would you like to take a ride, now
I can't get your love, I can't get satisfaction
Uh-oh, little girl, psychotic reaction

Coda:

fuzz guitar (as per intro):

 N.C.
v v v v v v v v v v v v v
	-----------------|-----------------|-----------------|---|
	-----------------|-----------------|-----------------|---|
	-----------------|-----------------|-----------------|---|
	-----4-----2-----|-----4-----2-----|-----4-----2-----|---|
	--------24-------|--------24---4---|--------24-------|---|
	-2---------------|-2---------------|-2---------------|-2-|


 repeat instrumental break; fade

-- another ace 60's tab from Andrew Rogers


E F#
variations - click chord images
Transpose chords:
Tuning:
Cool service:
View: Size:
A  A  A
Rating:
Layout:
  • Currently 2.5/5 Stars.
  • 1
  • 2
  • 3
  • 4
  • 5
 
Accuracy:
  • Currently 3/5 Stars.
  • 1
  • 2
  • 3
  • 4
  • 5
 
click stars to rate
Chordie recommends:
Learn to play songs at Jamplay.com with video guitar lessons
Songbook:
Login to add this song to your songbook
Support the artist
Preview/buy this song
MSN Music
Why this non-profit ad?

 
login to add comments/video/corrections