Guitar Tabs, Chords and Lyrics


Come Around  Counting Crows

-------------------------------------------------------------------------------



-------------------------------------------------------------------------------

e|----2---222----0----------0----------0--------------------3----------------|
B|----3---333----0----------0h1-111----0--------------------0----------------|
G|----2---222----0h1-111----0-0-000----0h1-111-------(2nd)--0----------------|
D|----0---000----0h2-222----0h2-222----0h2-222--------------0----------------|
A|----0---000----0h2-222----0h3-333----0h2-222--------------2----------------|
E|----------------------------------------------------------3----------------|(x2)
e|----2-22h3-2--0-2-2222h3-2-0-----------------------------------------------|
B|----3-33-3-3--3-3-3333-3-3-3-----------------------------------------------|
G|---------------------------------------------------------------------------|
D|---------------------------------------------------------------------------|
A|---------------------------------------------------------------------------|
E|---------------------------------------------------------------------------|(x2)
Wh[D]at I know is: she's going
When you kn[G]ow it, it's alright
So [D]you put yourself between you and your pri[G]de
If you w[D]ait for what's coming
And you [G]listen to her lies,
Then she'll s[D]ay the things you ne[A]ed to hear
And the o[G]nly one who'll disappear is y[A]ou
And one of the million lies she sa[G]id
Is "All of the things you love are de[A]ad."

But I've seen what she thinks is love
And it lea[G]ves me laughing so we'll still come aro[D]und


D, G, D, G, D, G, D


End with a strum of D.


===============================================================================

Important: The song above is NOT stored on the Chordie server. The original song is hosted at www.guitaretab.com. Chordie works as a search engine and provides on-the-fly formatting. Chordie does not index songs against artists'/composers' will. To remove this song please click here.

Text color:
Chord color:
Chord grids: 
Font size:    
Page size: 

A D G
variations - click chord images

Login - add to songbook

Transpose chords

Tuning

Rating click stars to rate

Layout
Accuracy

SHARE PAGE  




You need to log in to post comments