Guitar Tabs, Chords and Lyrics


Goodnight Elisabeth  Counting Crows

[F]C [133211]x32010 (x3203x) (He does a loose strum-y pull-off on the chord in
brackets at the end of the progression. Listen for
timing.)

Intro: (x2)

---------------------------------------------------------|
-----3--3b5--3---3-3b5-3--3-3b5-3---1------3p1-----------|
----0-0-------0---0-----0--0-----0--0----0----0----------|
--------------------------------------0h2-2--------------|
-----------------------------------3-3-------------------|
-2s3-------3---2------2--1-----1-------------------------|



Verse 1:
[G]I was wasted in the [D]afternoon
[F]Waiting on a t[C]rain
[G]I woke up in p[D]ieces and Elisabeth
Had [F]disappeared aga[C]in
[G]I wish you were ins[D]ide of me
[F]I hope that you're o[C]kay
[G]I hope you're resting[D] quietly
[F]I just wanted to s[C]ay


Chorus 1:
[G]Good, good[D]night Elisabeth
[F]Goodnight Elisabeth, g[C]oodnight

(repeat)

Verse 2: (same chords)

We couldn't all be cowboys
So some of us are clowns
Some of us are dancers on the midway
We roam from town to town
I hope that everybody can find a little flame
Me, I say my prayers, then I just light myself on fire
And I walk out on the wire once again
And I say

Chorus 2: (same chords)

Good, goodnight Elisabeth
Goodnight Elisabeth, goodnight

Solo: (Note: I'm not sure if the soloing guitar is actually capoed, but it
doesn't really matter. Notes posted here are again relative to the capo
so in actuality everything is up two frets)

-------------------------------------------------------------|
----8-10b12-10b12b10-8-10-10b12b10-8-11b13-10b12-8h10--------|
-7s9-------------------------------------------------7-------|
-------------------------------------------------------------|
-------------------------------------------------------------|
-------------------------------------------------------------|
----------------------------------------------17-------------|
-----1p0-1s3----7-8p7-7s9---------13p12--15b17--15b7b15-13---|
----0---0-----s7-----7----------12-----12--------------------|
-0h2-----------------------12h14-----------------------------|
-------------------------------------------------------------|
-------------------------------------------------------------|
-------------------------------------------------------------|
-12b13b12----------------------------------------------------|
---------14-14b16b14-12--------------------------------------|
-------------------------------------------------------------|
-------------------------------------------------------------|
-------------------------------------------------------------|


Verse 3: (same chords)

I will wait for you in baton rouge
Ill miss you down in new orleans
Ill wait for you while she slips in something comfortable
And Ill miss you when Im slipping in between
If you wrap yourself in daffodils
I will wrap myself in pain
And if youre the queen of california
Baby I am the king of the rain
And I say

Chorus 3: (same chords)

Good, goodnight Elisabeth
Goodnight Elisabeth, goodnight
Good, goodnight Elisabeth
The moon's a satellite, yeah
Won't you fall down on me now
Won't you fall down on me
Come, come, come fall down
On me now
Won't you fall down on me
I'm all alone
And you ain't comin' home
We just settle down, down, down into bone
I said I'm all alone
And you ain't comin' home
We just settle down, down, down into bone


Et voila. Questions/comments can be posted here below, or sent to me at
antoine.gravel@gmail.com.

Important: The song above is NOT stored on the Chordie server. The original song is hosted at www.guitaretab.com. Chordie works as a search engine and provides on-the-fly formatting. Chordie does not index songs against artists'/composers' will. To remove this song please click here.

Text color:
Chord color:
Chord grids: 
Font size:    
Page size: 

C D F G
variations - click chord images

Login - add to songbook

Transpose chords

Tuning

Rating click stars to rate

Layout
Accuracy

SHARE PAGE  




You need to log in to post comments