Guitar Tabs, Chords and Lyrics


Omaha  Counting Crows

Intro

e --2----4---------5p4p2p0---2-------2-----4--5---7----

b --2----2----12---------------------2------------7----
g -------1----------------------4----------------------
d --4--------------------------------4-----------------
a ------------------------------------------------9----
e -----------------------------------------------------
e --9--10----12--------10--9----7h9p7/5----------------
b -----------10----------------------------------------
g -----------------------------------------------------
d -----------0-----------------------------------------
a -----------------------------------------------------
e -----------------------------------------------------


Verse

[F#m]Start tearing the [C#m]old man down

[E]Run past the heather and [B]down to the old road
[F#m]Start turning the gr[C#m]ain into the ground
[D]Roll a new leaf over
[F#m]In the m[C#m]iddle of the night, theres an
[E]old man treading arou[B]nd in the gathered rain
[F#m]Well mister if you're gonna [C#m]walk on water
[E]Could you [D]drop a line my [A]way?
Chorus
[A]  Omah[E]a____

[F#m] somwehere in [D]middle America

[A]Get right to the [E]heart of matters
[D]   Its the heart that matters[A] more
[E]I think you'd better t[F#m]urn your ticket i[B]n
[D]And get your money back at the d[A]oor
That is the basis of the song, you should be
able to work out the rest from here!!

Digs (digs@totalise.co.uk)

Important: The song above is NOT stored on the Chordie server. The original song is hosted at www.guitaretab.com. Chordie works as a search engine and provides on-the-fly formatting. Chordie does not index songs against artists'/composers' will. To remove this song please click here.

Text color:
Chord color:
Chord grids: 
Font size:    
Page size: 

A B C#m D E F#m
variations - click chord images

Login - add to songbook

Transpose chords

Tuning

Rating click stars to rate

Layout
Accuracy

SHARE PAGE  




You need to log in to post comments

jasongarland (report)

*Bm
+3 semitones also great

hwed (report)

Move this to Em for an easier run, beginners (-2 semitones)