Guitar Tabs, Chords and Lyrics


Rain King  Counting Crows



    [D]            [A/C#]                    [B-] [A]                                                                                      
E---2------------0------------------0------------------0---------------------|
B---3------------2------------------0------------------2---------------------|
G---2------------2------------------4------------------2---------------------|
D---0------------2------------------4------------------2---------------------|
A---0------------3------------------2------------------0---------------------|
E---0------------0------------------0------------------0---------------------|

* When Adam starts to sing it's the same verse(part 1) just more quiet.
Part 2: (Bridge)
*Hit the bass line of these two chords lightly and then pick through the
last three notes. The B- and the G in the bridge is played twice before the
chorus comes in, the rest is only played once.
           [B-]                  [G]       [D] [Esus] [E]                                                                                      
E----------0-----------------1---------2--------0-----------0----------------|
B----------0-----------------0---------3--------0-----------0----------------|
G----------4-----------------0---------2--------2-----------3----------------|
D----------4-----------------0---------0--------2-----------2----------------|
A----------2-----------------2---------0--------2-----------2----------------|
E----------0-----------------3---------0--------0-----------0----------------|

Part 3: (Chorus)
        [A]           [B-]          [D]       [E]                                                                                      
E-------0----------0---------2--------0--------------------------------------|
B-------2----------0---------3--------0--------------------------------------|
G-------2----------4---------3--------3--------------------------------------|
D-------2----------4---------0--------2--------------------------------------|
A-------0----------2---------0--------2--------------------------------------|
E-------0----------0---------0--------0--------------------------------------|

***Here the verse and the bridge are repeated once again**
Part 4:(Bridge 2)
*You have to pick through all 3 chords here.
        [B-]               [D]                  [A]                                             
E-------0--------------2-----------------0-----------------------------------|
B-------0--------------3-----------------2-----------------------------------|
G-------4--------------2-----------------2-----------------------------------|
D-------4--------------0-----------------2-----------------------------------|
A-------2--------------0-----------------0-----------------------------------|
E-------0--------------0-----------------0-----------------------------------|

*** From here on the chorus and bridge 1 is repeated again**
Simple. Ta da!
Jay Collins
--------------------------------------------------------------------------------

The difference between the perfect world and the almost-perfect world, is
like the difference between fire and the firefly. -Mark Twain-
Jeremy Collins
backburn@earthlink.net
----------------------------------------------------------------------------

[----]                                       

Important: The song above is NOT stored on the Chordie server. The original song is hosted at www.guitaretab.com. Chordie works as a search engine and provides on-the-fly formatting. Chordie does not index songs against artists'/composers' will. To remove this song please click here.

Text color:
Chord color:
Chord grids: 
Font size:    
Page size: 

A A/C# D E Esus G
variations - click chord images

Login - add to songbook

Transpose chords

Tuning

Rating click stars to rate

Layout
Accuracy

SHARE PAGE  




You need to log in to post comments