Chordie logo

How Dirty Girls Get Clean   Courtney Love





Verse
         
e|-x---x---x---|
B|-3---3---2---|
G|-2---0---2---|
D|-3---2---2---|
A|-x---3---0---|
E|-x---0---0---|

Then on the last line before the chorus, She plays:-

e|-x---x---3---|
B|-3---3---3---|
G|-2---0---0---|
D|-3---2---0---|
A|-x---3---2---|
E|-x---0---3---|


Chorus
         
e|-x---x---x---|
B|-x---x---x---|
G|-x---x---x---|
D|-8---3---5---|
A|-8---3---5---|
E|-6---1---3---|

Then before the second verse comes in:-

Guitar 1 (Distortion) plays:-
e|-x---x---x---|
B|-x---x---x---|
G|-10--5---x---|
D|-10--5---7---|
A|-8---3---7---|
E|-0---0---5---|

Guitar 2 plays:-

e|-x---x---x---|
B|-3---3---2---|
G|-2---0---2---|
D|-3---2---2---|
A|-x---3---0---|
E|-x---0---0---|

Verse 2

e|-x---x---x---|
B|-3---3---2---|
G|-2---0---2---|
D|-3---2---2---|
A|-x---3---0---|
E|-x---0---0---|

Bassline:-


G|------------------------------------------|
D|---------------------------7-7777777------|
A|--88883333---------88883333---------------|
E|----------5-5555555-----------------------|


Again, just before entering the second chorus

G|------------------------------------------|
D|------------------------------------------|
A|--88883333--------------------------------|
E|----------3-------------------------------|

Chorus


Verse 3

Guitar 1 (Distortion) plays:-
e|-x---x---x---|
B|-x---x---x---|
G|-10--5---x---|

D|-10--5---7---|
A|-8---3---7---|
E|-0---0---5---|

Guitar 2 plays:-

e|-x---x---x---|
B|-3---3---2---|
G|-2---0---2---|
D|-3---2---2---|
A|-x---3---0---|
E|-x---0---0---|

Chorus

And that's basically it. :)


Important: The song above is NOT stored on the Chordie server. The original song is hosted at www.guitaretab.com. Chordie works as a search engine and provides on-the-fly formatting. Chordie does not index songs against artists/composers will. To remove this song please click here.

This song is displayed as text-only. Transposing and tuning is only available for chordpro-songs.

Login - add to songbook

Rating click stars to rate

Layout
Accuracy

SHARE PAGE  



You need to log in to post comments