Guitar Tabs, Chords and Lyrics


Atordoado  Cpm 22

e||-----------------------------------------------------------------||


B||-----------------------------------------------------------------||


G||-7-7-7-7-7-7-7----10-10-10-10-10-10---8--8--8--8--8--8-----------||

D||-x-x-x-x-x-x-x----x--x--x--x--x--x----x--x--x--x--x--x-----------|| (3x)
A||-5-5-5-5-5-5-5----8--8--8--8--8--8----6--6--6--6--6--6-----------||
E||-----------------------------------------------------------------||
e||----------||
B||----------||
E||----------||
        [G]             [Bb]            [Eb]                                            
e||-------------------------------------||
B||-------------------------------------||
G||--------------------------8-8-8-8-8--||
D||--5-5-5-5-5-5-5---8-8-8---8-8-8-8-8--||
A||--5-5-5-5-5-5-5---8-8-8---6-6-6-6-6--||
E||--3-3-3-3-3-3-3---6-6-6--------------||
        |---- REPETE 4 VEZES----|

[G] Foram-se os dias, man[Bb]hãs tardes e noite[Eb]s a esper[G]ar
toda um[Bb]a vida, es[Eb]perança de um[G]a chance pra mostrar
desiludida, a [Bb]ponto de ten[Eb]tar tudo apa[G]gar de uma só [Bb]vez   [Eb]
[G] buscand[Bb]o ainda,[Eb] dignidade [G]e respeito
uma saida, para [Bb]um momen[Eb]to de desespe[G]ro
com as mãos vazias, e a m[Bb]ente at[Eb]ormentada[G] a ponto[Bb] de t[Eb]udo arriscar
[C]  [D]  [Eb]      e a[Bb]gora o que sobrou?
[C]  [D]  [Eb]      tris[Bb]teza é o q[C]ue[D] f[Eb]icou?
    ach[Bb]ar uma man[F]eira de s[Eb]air daqui
(Guitarra 2 faz com isso no refrao)

G||-7-7-7-7-7-7---8-8-8-8-8-8---7-7-7-7-7-7---8-8-8-8-8-8---3-3-3-3-3-3-
D||-x-x-x-x-x-x---x-x-x-x-x-x---x-x-x-x-x-x---x-x-x-x-x-x---x-x-x-x-x-x-
A||-5-5-5-5-5-5---6-6-6-6-6-6---5-5-5-5-5-5---6-6-6-6-6-6---1-1-1-1-1-1-

Continuação
G||-5-5-5-5-5-5---8-8-8-8-8-8---7-8-7-8-7-||
D||-x-x-x-x-x-x---x-x-x-x-x-x---x-x-x-x-x-|| (2x)
A||-3-3-3-3-3-3---6-6-6-6-6-6---5-6-5-6-5-||



       : [Bb] atordo[C]ado ele se f[G]oi
: Eb Bb
: dizendo que nao agüentou
: C G Eb
Refrão : cobranças de um mundo o qual não entendeu jamais
: Bb C G
: Atordoado ele se foi
: Eb Bb C G Eb
: parece que não mais voltou desistiu de tentar mais uma vez aqui


C Bb Eb Bb~ Bb Eb Bb
nada pode lhe parar
C Bb Eb Bb~ Bb Eb Bb
voltar a ver o sol nascer
C Bb Eb Bb~ Bb Eb Bb
tudo que possa alcançar
C Eb~~~
será que é tarde pra viver?


       : [Bb] atordo[C]ado ele se f[G]oi
: Eb Bb
: dizendo que nao agüentou
: C G Eb
Refrão : cobranças de um mundo o qual não entendeu jamais
: Bb C G
: Atordoado ele se foi
: Eb Bb C G Eb
: parece que não mais voltou desistiu de tentar mais uma vez aqui


termina com Bb, Eb, Bb

Important: The song above is NOT stored on the Chordie server. The original song is hosted at www.guitaretab.com. Chordie works as a search engine and provides on-the-fly formatting. Chordie does not index songs against artists'/composers' will. To remove this song please click here.

Text color:
Chord color:
Chord grids: 
Font size:    
Page size: 

Bb C D Eb F G
variations - click chord images

Login - add to songbook

Transpose chords

Tuning

Rating click stars to rate

Layout
Accuracy

SHARE PAGE  




You need to log in to post comments