Guitar Tabs, Chords and Lyrics


Desire In Violent Overture   Cradle Of Filth



  "Desire in Violent Overture" as performed by Cradle of Filth 
   on their 1998 album "Cruelty and the Beast"

 The Black Death... Black & Death Metal Page
 http://come.to/theblackdeath

Version 1.0
Tabbed by: Ishnar (j.a.schlaman@st.hanze.nl)

SUPREME VAMPIRIC EVIL!!

For the exact timing and rhythm just hear the song and play!!
Tune down 1 step (DGCFAD)

RIFF A
This riff must be played like this:
always play the whole chord (using barré) and with the free
finger play the pull off notes...
D|5---------------------------6-------------6-7-9--7--|
A|7---------------------------8-------------8-9-11-9--|
F|7--8p7--9p7--8p7--9p7--8p7--8--9p8--10p8--8-9-11-9--|
C|7---------------------------8-------------8-9-11-9--|
G|5---------------------------6-------------6-7-9--7--|
D|----------------------------------------------------|

D|6------------7-9--12---13--8----|
A|8------------9-11-14---15--10---|
F|8--9p8-10p8--9-11-14---15--10---|
C|8------------9-11-14---15--10---|
G|6------------7-9--12---13--8----|
D|--------------------------------|


RIFF B
This riff needs FAST sliding!! Also played during solo
D|--------------------------|------------------------------|
A|--------------------------|------------------------------|
F|--------------------------|------------------------------|
C|9--9-9--9-9-9-9-9/10-9/10-|9--9-9--9-9-9/10-9/10-7/8-7/8-|
G|7--7-7--7-7-7-7-7/8--7/8--|7--7-7--7-7-7/8--7/8--5/6-5/6-|
D|--------------------------|------------------------------| 
     .    .                     .    .

D|--------------------------|------------------------------|
A|--------------------------|------------------------------|
F|--------------------------|------------------------------|
C|9--9-9--9-9-9-9-9/10-9/10-|9--9-9--9-9-8/9-8/9-7/8-7/8---|
G|7--7-7--7-7-7-7-7/8--7/8--|7--7-7--7-7-6/7-6/7-5/6-5/6---|
D|--------------------------|------------------------------| 
     .    .                     .    .

RIFF C
D|-------------|
A|-------------|
F|-------7---3-|
C|7------7---5-|
G|7------5---5-|
D|5------------|

RIFF D
This riff is FAST!!
D|----------------|
A|--5p3-5---5p3-5-|
F|5-------5-------|
C|----------------|
G|----------------|
D|----------------|

RIFF E
D|-------------------------|
A|-------------------------|
F|--4---4-5---4---2-2-2-2--|
C|2-4-2-4-5---4---2-2-2-2--|
G|2-2-2-2-3---2---0-0-0-0--|
D|0---0--------------------|
                  [PM...]

RIFF C

RIFF F
Play both guitars with the same timing!!
  Guitar 1
D|---------------------------|
A|---------------------------|
F|-------7--9--------------7-|
C|7-------------7------10----|
G|---------------------------|
D|---------------------------|
 |Guitar 2                   |
D|---------------------------|
A|---------------------------|
F|-------------------------7-|
C|7---------10--7------8-----|
G|-------8-------------------|
D|---------------------------|

RIFF E

RIFF A

RIFF G
D|----------------------------------|
A|----------------------------------|
F|7--5--3--2------------------------|
C|7--5--3--2--5-2-2--2--2-2-2-2-3-3-|
G|5--3--1--0--5-2-2--2--2-2-2-2-3-3-|
D|------------3-0-0--0--0-0-0-0-1-1-|

RIFF C
RIFF D

RIFF H
D|---------------------------------------|
A|---------------------------------------|
F|------------------------------5-5--5-5-|
C|7-7--7-7--7-7--7-7--3-3--3-3--5-5--5-5-|
G|7-7--7-7--7-7--7-7--3-3--3-3--3-3--3-3-|
D|5-5--5-5--5-5--5-5--1-1--1-1-----------|

D|---------------------------------------|
A|---------------------------------------|
F|------------------------------7-7--7-7-|
C|7-7--7-7--7-7--7-7--3-3--3-3--7-7--7-7-|
G|7-7--7-7--7-7--7-7--3-3--3-3--5-5--5-5-|
D|5-5--5-5--5-5--5-5--1-1--1-1-----------|


How to play this song :

Play RIFF A 3x
Play RIFF B 3x
Play RIFF C 4x
then play RIFF D 16x 
Play RIFF E 4x
RIFF C 4x
Only the bassguitar now
RIFF F 2x -> Play either Guitar 1 or Guitar 2
RIFF E 4x
RIFF A 3x
RIFF G 2x
RIFF C 4x
RIFF D 8x
RIFF H 
RIFF G
The last chord is 
D|---|
A|---|
F|-7-|
C|-7-|
G|-5-|


Important: The song above is NOT stored on the Chordie server. The original song is hosted at www.guitaretab.com. Chordie works as a search engine and provides on-the-fly formatting. Chordie does not index songs against artists'/composers' will. To remove this song please click here.

This song is displayed as text-only. Transposing and tuning is only available for chordpro-songs.

Login - add to songbook

Rating click stars to rate

Layout
Accuracy

SHARE PAGE  




You need to log in to post comments