Guitar Tabs, Chords and Lyrics


Of Mist And Midnight Skies   Cradle Of Filth



Of Mist and Midnight Skies
by Cradle of Filth


Riff 1                     
                           
x 4                        
                           
------------------------
------------------------
------------------------
-2---6---7--------------
-2---6---7---7v------6v-
-0---4---5--------------

x 1

-------
-------
-------
-7---5-
-7---5-
-5---3-

Riff 2

------------------------------------------------
------------------------------------------------
------------------------------------------------
------------------------------------------------
---------------------5--------------------------
-5-7-8---7-5-7---7-8-----8-7-8---7-5-7----5-4-5-

--------------------------------------------------------------
--------------------------------------------------------------
--------------------------------------------------------------
--------------------------------------------------------------
-8---8-7-5---5-7-8---7---7-5-------5-7----5---5---------------
-----------------------------8---8--------------8-7---4-5---3-

------------------------------------------------
------------------------------------------------
------------------------------------------------
------------------------------------------------
---------------------5--------------------------
-5-7-8---7-5-7---7-8-----8-7-8---7-5-7----5-4-5-

---------------------------------------------------------------
---------------------------------------------------------------
---------------------------------------------------------------
---------------------------------------------------------------
-8---8-7-5---5-7-8---7---7-5-------5-7----5---5----------------
-----------------------------8---8--------------8-7---4-5---5\-

Riff 3

x 2

-----------------------------------
-----------------------------------
-----------------------------------
-2---7-6---7-6-8v--2---7-6---7-6---
-2-----------------2-------------5-
-0-----------------0---------------

x 2

|-----------------------------------------------|
|-----------------------------------------------|
|-----------------------------------------------|
|-2-2-2-2---7-6---7-6-8v--2-2-2-2---7-6---7-6---|
|-2-2-2-2-----------------2-2-2-2-------------5-|
|-0-0-0-0-----------------0-0-0-0---------------|
| ^ ^ ^ ^                 ^ ^ ^ ^               |
|-----------------------------------------------|
|-----------6-5---6-5-7-------------6-5---6-5---|
|---------------------------------------------7-|
|-2-2-2-2-----------------2-2-2-2---------------|
|-2-2-2-2-----------------2-2-2-2---------------|
|-0-0-0-0-----------------0-0-0-0---------------|
  ^ ^ ^ ^                 ^ ^ ^ ^
** Riff 1 **

Riff 4

-----------------------------------------
-----------------------------------------
-----------------------------------------
-----------------------------------------
-------------7---------------------------


Important: The song above is NOT stored on the Chordie server. The original song is hosted at www.guitaretab.com. Chordie works as a search engine and provides on-the-fly formatting. Chordie does not index songs against artists'/composers' will. To remove this song please click here.

This song is displayed as text-only. Transposing and tuning is only available for chordpro-songs.

Login - add to songbook

Rating click stars to rate

Layout
Accuracy

SHARE PAGE  




You need to log in to post comments