Guitar Tabs, Chords and Lyrics


Amor E Morte   Cradle Of Filth



Song: Amor E Morte
Band: Cradle Of Filth
Album: Midian
by: chookmv@hotmail.com
* This is a pretty poor tab, I'm sorry I couldn't go in to more depth,
but It's a start and I will add more later.


                             3x
1|----------------------------|--------------------------|
2|----------------------------|--------------------------|
3|o--------------------------o|----------------7-6-------|
4|o-----7-6-7--------7-6-----o|--------------------7-----|
5|----------------------7-----|----------7-----------8-7-|
6|--5---------x-5--------8-7--|--5--8-7------5-----------|
   PM------------------------|
                             3x
1|---------------------------|----------------------------|
2|---------------------------|----------------------------|
3|o-------------------9-----o|----------10-----7-6--------|
4|o-7-10-9-10-9h10p9----6-6-o|--7-9-10-------------7------|
5|---------------------------|--------------0--------8-7--|
6|---------------------------|----------------------------|

Verse
1|------------------------------|
2|------------------------------|
3|------------------------------|
4|-7------5------3---2---3---2--|2x
5|-7------5------3---2---3---2--|
6|-5------3------1---0---1---0--|

5|-7777777777777777-55555555555555-333333-22222-33333-222222--|
   Tremelo Picking------------------------------------------|

4|--7-x-9-x-10-10-x-9-x-7-7-x-9-x-10-10-x-9---555555--444444-55555-44444-|
                                              Tremelo Picking-----------|
                       3x
  3x
5|-2--x-x-x-x-2--2-3-4-|-2--x-x-x-x-2--|o-22222222-00000000--3333333-0000000--o|
6|-0--x-x-x-x-0--0-1-6-|-0--x-x-x-x-0--|o-------------------------------------o|
     PM---------------|                   Tremelo
Pick-----------------------|

1|-----------------------------------------------------------------------------------------|
2|-----------------------------------------------------------------------------------------|
3|-----------------------------------------------------------------------------------------|
4|-------------------------------9-7-5-7-5-4----------------------------4-7-5-4-5-4-0------|
5|--7-7--7-7-7-7--7-7--7-7--7-7--------------5-5--5-5-5-5--5-5-5-5--5-7--------------------|
6|-----------------------------------------------------------------------------------------|
         pm       pm        pm


Outro Riff
4|----7-6-7----------|
5|----------7--------|


Important: The song above is NOT stored on the Chordie server. The original song is hosted at www.guitaretab.com. Chordie works as a search engine and provides on-the-fly formatting. Chordie does not index songs against artists'/composers' will. To remove this song please click here.

This song is displayed as text-only. Transposing and tuning is only available for chordpro-songs.

Login - add to songbook

Rating click stars to rate

Layout
Accuracy

SHARE PAGE  




You need to log in to post comments