Optimism

Cragga

E----------------------------------------|

B----0------0------0----0------0------0--|
G------0------0-----------0------0-------|
D--3-----3------3----2------2------2-----|
A----------------------------------------|
E----------------------------------------|

 GDCDCD
 WHATS THE POINT OF LIVING IN OPTIMISM              
 GDCDCD
 IT JUST LEAVES YOU FEELING DISSAPOINTED            
times 2

verse2

DREAMS ARE THERE TO GIVE AMBITION, AND THERE FOR TAKING AWAY
BROKEN HOMES AND RUINED LIVES ARE, SHOWING US THE WAY

chorus

middle 8

 AEBC
 I'D RATHER BE A PESAMISTIC BUM   
 ABD#
 THEN AT LEAST I MAY GET SOMETHING DONE

solo
 FEm
E------------------------------------|
B------------------------------------|
G------------------------------1-3-0-|  times 2
D-----------------------1--3---------|
A--0/1-1--3-3--5-5--3-3--------------|
E------------------------------------|


chorus

verse chords outro








A B C D D# E Em F G
variations - click chord images
Transpose chords:
Tuning:
Cool service:
View: Size:
A  A  A
Rating:
Layout:
  • Currently 2.9/5 Stars.
  • 1
  • 2
  • 3
  • 4
  • 5
 
Accuracy:
  • Currently 2.9/5 Stars.
  • 1
  • 2
  • 3
  • 4
  • 5
 
click stars to rate
Chordie recommends:
Learn how to play guitar at JamPlay.com
Songbook:
Login to add this song to your songbook
Support the artist
Preview/buy this song
MSN Music
Why this non-profit ad?

 
login to add comments/video/corrections